ISO-10303-21;
HEADER;
FILE_DESCRIPTION (( 'STEP AP214' ),
    '1' );
FILE_NAME ('6408732.stp',
    '2019-12-02T09:20:50',
    ( '' ),
    ( '' ),
    'SwSTEP 2.0',
    'SolidWorks 2018',
    '' );
FILE_SCHEMA (( 'AUTOMOTIVE_DESIGN' ));
ENDSEC;

DATA;
#1 = ADVANCED_FACE ( 'NONE', ( #188, #209 ), #100, .F. ) ;
#2 = VERTEX_POINT ( 'NONE', #116 ) ;
#3 = AXIS2_PLACEMENT_3D ( 'NONE', #206, #11, #63 ) ;
#4 = CARTESIAN_POINT ( 'NONE',  ( 0.0000000000000000000, 6.735557395310442023E-16, -5.500000000000000000 ) ) ;
#5 = PRESENTATION_LAYER_ASSIGNMENT (  '', '', ( #176 ) ) ;
#6 = ORIENTED_EDGE ( 'NONE', *, *, #114, .T. ) ;
#7 = CARTESIAN_POINT ( 'NONE',  ( 0.0000000000000000000, 0.0000000000000000000, 0.0000000000000000000 ) ) ;
#8 = SURFACE_STYLE_USAGE ( .BOTH. , #109 ) ;
#9 = EDGE_CURVE ( 'NONE', #91, #113, #164, .T. ) ;
#10 = CARTESIAN_POINT ( 'NONE',  ( -3.000000000000002665, 0.0000000000000000000, 0.0000000000000000000 ) ) ;
#11 = DIRECTION ( 'NONE',  ( -1.000000000000000000, -0.0000000000000000000, -0.0000000000000000000 ) ) ;
#12 = FILL_AREA_STYLE ('',( #89 ) ) ;
#13 = EDGE_CURVE ( 'NONE', #2, #19, #97, .T. ) ;
#14 = CIRCLE ( 'NONE', #131, 17.00000000000000000 ) ;
#15 = EDGE_CURVE ( 'NONE', #113, #155, #121, .T. ) ;
#16 = EDGE_LOOP ( 'NONE', ( #140, #98, #199, #101 ) ) ;
#17 = ADVANCED_FACE ( 'NONE', ( #104 ), #171, .T. ) ;
#18 = CIRCLE ( 'NONE', #192, 17.00000000000000000 ) ;
#19 = VERTEX_POINT ( 'NONE', #86 ) ;
#20 = CARTESIAN_POINT ( 'NONE',  ( 0.0000000000000000000, 0.0000000000000000000, 0.0000000000000000000 ) ) ;
#21 = ORIENTED_EDGE ( 'NONE', *, *, #50, .T. ) ;
#22 = DIRECTION ( 'NONE',  ( -1.000000000000000000, -0.0000000000000000000, -0.0000000000000000000 ) ) ;
#23 = DIRECTION ( 'NONE',  ( -1.000000000000000000, -0.0000000000000000000, -0.0000000000000000000 ) ) ;
#24 = DIRECTION ( 'NONE',  ( -1.000000000000000000, -0.0000000000000000000, -0.0000000000000000000 ) ) ;
#25 = DIRECTION ( 'NONE',  ( -1.000000000000000000, -0.0000000000000000000, -0.0000000000000000000 ) ) ;
#26 =( GEOMETRIC_REPRESENTATION_CONTEXT ( 3 ) GLOBAL_UNCERTAINTY_ASSIGNED_CONTEXT ( ( #196 ) ) GLOBAL_UNIT_ASSIGNED_CONTEXT ( ( #27, #107, #142 ) ) REPRESENTATION_CONTEXT ( 'NONE', 'WORKASPACE' ) );
#27 =( LENGTH_UNIT ( ) NAMED_UNIT ( * ) SI_UNIT ( .MILLI., .METRE. ) );
#28 = CARTESIAN_POINT ( 'NONE',  ( -3.000000000000002665, 0.0000000000000000000, 0.0000000000000000000 ) ) ;
#29 = VECTOR ( 'NONE', #24, 1000.000000000000000 ) ;
#30 = EDGE_LOOP ( 'NONE', ( #163, #53 ) ) ;
#31 = ADVANCED_BREP_SHAPE_REPRESENTATION ( '6408732', ( #179, #99 ), #46 ) ;
#32 = AXIS2_PLACEMENT_3D ( 'NONE', #185, #139, #172 ) ;
#33 = APPLICATION_PROTOCOL_DEFINITION ( 'draft international standard', 'automotive_design', 1998, #93 ) ;
#34 = ORIENTED_EDGE ( 'NONE', *, *, #15, .F. ) ;
#35 = SURFACE_STYLE_FILL_AREA ( #12 ) ;
#36 = EDGE_LOOP ( 'NONE', ( #212, #94, #6, #161 ) ) ;
#37 = LINE ( 'NONE', #186, #197 ) ;
#38 = PRODUCT_RELATED_PRODUCT_CATEGORY ( 'part', '', ( #128 ) ) ;
#39 = CARTESIAN_POINT ( 'NONE',  ( -34.92499999999994742, 0.0000000000000000000, 0.0000000000000000000 ) ) ;
#40 = AXIS2_PLACEMENT_3D ( 'NONE', #7, #115, #135 ) ;
#41 = CARTESIAN_POINT ( 'NONE',  ( 0.0000000000000000000, 5.500000000000000000, 0.0000000000000000000 ) ) ;
#42 = FACE_OUTER_BOUND ( 'NONE', #148, .T. ) ;
#43 = DIRECTION ( 'NONE',  ( 0.0000000000000000000, 0.0000000000000000000, 1.000000000000000000 ) ) ;
#44 = ORIENTED_EDGE ( 'NONE', *, *, #118, .F. ) ;
#45 = CARTESIAN_POINT ( 'NONE',  ( -3.000000000000002665, 0.0000000000000000000, 5.500000000000000000 ) ) ;
#46 =( GEOMETRIC_REPRESENTATION_CONTEXT ( 3 ) GLOBAL_UNCERTAINTY_ASSIGNED_CONTEXT ( ( #158 ) ) GLOBAL_UNIT_ASSIGNED_CONTEXT ( ( #173, #175, #119 ) ) REPRESENTATION_CONTEXT ( 'NONE', 'WORKASPACE' ) );
#47 = CARTESIAN_POINT ( 'NONE',  ( 0.0000000000000000000, 0.0000000000000000000, 0.0000000000000000000 ) ) ;
#48 = PRESENTATION_LAYER_ASSIGNMENT (  '', '', ( #165 ) ) ;
#49 = SURFACE_SIDE_STYLE ('',( #35 ) ) ;
#50 = EDGE_CURVE ( 'NONE', #19, #2, #68, .T. ) ;
#51 = SURFACE_STYLE_FILL_AREA ( #66 ) ;
#52 =( NAMED_UNIT ( * ) SI_UNIT ( $, .STERADIAN. ) SOLID_ANGLE_UNIT ( ) );
#53 = ORIENTED_EDGE ( 'NONE', *, *, #50, .F. ) ;
#54 = AXIS2_PLACEMENT_3D ( 'NONE', #106, #23, #141 ) ;
#55 = CIRCLE ( 'NONE', #150, 5.500000000000000000 ) ;
#56 = AXIS2_PLACEMENT_3D ( 'NONE', #138, #22, #43 ) ;
#57 = CARTESIAN_POINT ( 'NONE',  ( -34.92499999999994742, 0.0000000000000000000, 0.0000000000000000000 ) ) ;
#58 = EDGE_LOOP ( 'NONE', ( #151, #130 ) ) ;
#59 = DIRECTION ( 'NONE',  ( -1.000000000000000000, -0.0000000000000000000, -0.0000000000000000000 ) ) ;
#60 = CIRCLE ( 'NONE', #137, 5.500000000000000000 ) ;
#61 = ORIENTED_EDGE ( 'NONE', *, *, #160, .F. ) ;
#62 = DIRECTION ( 'NONE',  ( -1.000000000000000000, -0.0000000000000000000, -0.0000000000000000000 ) ) ;
#63 = DIRECTION ( 'NONE',  ( 0.0000000000000000000, 0.0000000000000000000, 1.000000000000000000 ) ) ;
#64 = EDGE_LOOP ( 'NONE', ( #61, #34 ) ) ;
#65 = CARTESIAN_POINT ( 'NONE',  ( -3.000000000000002665, 0.0000000000000000000, 17.00000000000000000 ) ) ;
#66 = FILL_AREA_STYLE ('',( #159 ) ) ;
#67 = SURFACE_STYLE_USAGE ( .BOTH. , #49 ) ;
#68 = CIRCLE ( 'NONE', #40, 17.00000000000000000 ) ;
#69 = DIRECTION ( 'NONE',  ( 1.000000000000000000, 0.0000000000000000000, 0.0000000000000000000 ) ) ;
#70 = AXIS2_PLACEMENT_3D ( 'NONE', #39, #152, #187 ) ;
#71 = ADVANCED_FACE ( 'NONE', ( #92 ), #83, .F. ) ;
#72 = PRODUCT_DEFINITION_FORMATION_WITH_SPECIFIED_SOURCE ( 'ANY', '', #128, .NOT_KNOWN. ) ;
#73 = EDGE_LOOP ( 'NONE', ( #126, #77 ) ) ;
#74 = CARTESIAN_POINT ( 'NONE',  ( -34.92499999999994742, 6.735557395310442023E-16, -5.500000000000000000 ) ) ;
#75 = PRODUCT_DEFINITION ( 'UNKNOWN', '', #72, #133 ) ;
#76 = DIRECTION ( 'NONE',  ( 0.0000000000000000000, 0.0000000000000000000, 1.000000000000000000 ) ) ;
#77 = ORIENTED_EDGE ( 'NONE', *, *, #112, .T. ) ;
#78 = CARTESIAN_POINT ( 'NONE',  ( -3.000000000000002665, 2.081899558550500280E-15, -17.00000000000000000 ) ) ;
#79 = CARTESIAN_POINT ( 'NONE',  ( -3.000000000000001332, 17.00000000000000000, 0.0000000000000000000 ) ) ;
#80 = FACE_OUTER_BOUND ( 'NONE', #36, .T. ) ;
#81 = CLOSED_SHELL ( 'NONE', ( #96, #71, #201, #1, #17, #184 ) ) ;
#82 = EDGE_CURVE ( 'NONE', #19, #111, #37, .T. ) ;
#83 = CYLINDRICAL_SURFACE ( 'NONE', #70, 5.500000000000000000 ) ;
#84 = VERTEX_POINT ( 'NONE', #117 ) ;
#85 = DIRECTION ( 'NONE',  ( -1.000000000000000000, -0.0000000000000000000, -0.0000000000000000000 ) ) ;
#86 = CARTESIAN_POINT ( 'NONE',  ( 0.0000000000000000000, 2.081899558550500280E-15, -17.00000000000000000 ) ) ;
#87 = DIRECTION ( 'NONE',  ( -1.000000000000000000, -0.0000000000000000000, -0.0000000000000000000 ) ) ;
#88 = CARTESIAN_POINT ( 'NONE',  ( -34.92499999999994742, 0.0000000000000000000, 17.00000000000000000 ) ) ;
#89 = FILL_AREA_STYLE_COLOUR ( '', #178 ) ;
#90 = DIRECTION ( 'NONE',  ( -1.000000000000000000, -0.0000000000000000000, -0.0000000000000000000 ) ) ;
#91 = VERTEX_POINT ( 'NONE', #4 ) ;
#92 = FACE_OUTER_BOUND ( 'NONE', #16, .T. ) ;
#93 = APPLICATION_CONTEXT ( 'automotive_design' ) ;
#94 = ORIENTED_EDGE ( 'NONE', *, *, #202, .F. ) ;
#95 = ORIENTED_EDGE ( 'NONE', *, *, #82, .F. ) ;
#96 = ADVANCED_FACE ( 'NONE', ( #42 ), #154, .T. ) ;
#97 = CIRCLE ( 'NONE', #181, 17.00000000000000000 ) ;
#98 = ORIENTED_EDGE ( 'NONE', *, *, #9, .T. ) ;
#99 = AXIS2_PLACEMENT_3D ( 'NONE', #124, #129, #69 ) ;
#100 = PLANE ( 'NONE',  #166 ) ;
#101 = ORIENTED_EDGE ( 'NONE', *, *, #114, .F. ) ;
#102 = DIRECTION ( 'NONE',  ( -0.0000000000000000000, 0.0000000000000000000, 1.000000000000000000 ) ) ;
#103 = DIRECTION ( 'NONE',  ( -1.000000000000000000, -0.0000000000000000000, -0.0000000000000000000 ) ) ;
#104 = FACE_OUTER_BOUND ( 'NONE', #195, .T. ) ;
#105 = ORIENTED_EDGE ( 'NONE', *, *, #156, .F. ) ;
#106 = CARTESIAN_POINT ( 'NONE',  ( -34.92499999999994742, 0.0000000000000000000, 0.0000000000000000000 ) ) ;
#107 =( NAMED_UNIT ( * ) PLANE_ANGLE_UNIT ( ) SI_UNIT ( $, .RADIAN. ) );
#108 = CARTESIAN_POINT ( 'NONE',  ( -34.92499999999994742, 0.0000000000000000000, 5.500000000000000000 ) ) ;
#109 = SURFACE_SIDE_STYLE ('',( #51 ) ) ;
#110 = VECTOR ( 'NONE', #169, 1000.000000000000000 ) ;
#111 = VERTEX_POINT ( 'NONE', #78 ) ;
#112 = EDGE_CURVE ( 'NONE', #91, #84, #60, .T. ) ;
#113 = VERTEX_POINT ( 'NONE', #194 ) ;
#114 = EDGE_CURVE ( 'NONE', #84, #155, #136, .T. ) ;
#115 = DIRECTION ( 'NONE',  ( -1.000000000000000000, -0.0000000000000000000, -0.0000000000000000000 ) ) ;
#116 = CARTESIAN_POINT ( 'NONE',  ( 0.0000000000000000000, 0.0000000000000000000, 17.00000000000000000 ) ) ;
#117 = CARTESIAN_POINT ( 'NONE',  ( 0.0000000000000000000, 0.0000000000000000000, 5.500000000000000000 ) ) ;
#118 = EDGE_CURVE ( 'NONE', #111, #198, #18, .T. ) ;
#119 =( NAMED_UNIT ( * ) SI_UNIT ( $, .STERADIAN. ) SOLID_ANGLE_UNIT ( ) );
#120 = CARTESIAN_POINT ( 'NONE',  ( -3.000000000000002665, 0.0000000000000000000, 0.0000000000000000000 ) ) ;
#121 = CIRCLE ( 'NONE', #56, 5.500000000000000000 ) ;
#122 = APPLICATION_CONTEXT ( 'automotive_design' ) ;
#123 = MECHANICAL_DESIGN_GEOMETRIC_PRESENTATION_REPRESENTATION (  '', ( #165 ), #213 ) ;
#124 = CARTESIAN_POINT ( 'NONE',  ( 0.0000000000000000000, 0.0000000000000000000, 0.0000000000000000000 ) ) ;
#125 = UNCERTAINTY_MEASURE_WITH_UNIT (LENGTH_MEASURE( 1.000000000000000082E-05 ), #180, 'distance_accuracy_value', 'NONE');
#126 = ORIENTED_EDGE ( 'NONE', *, *, #202, .T. ) ;
#127 =( NAMED_UNIT ( * ) PLANE_ANGLE_UNIT ( ) SI_UNIT ( $, .RADIAN. ) );
#128 = PRODUCT ( '6408732', '6408732', '', ( #147 ) ) ;
#129 = DIRECTION ( 'NONE',  ( 0.0000000000000000000, 0.0000000000000000000, 1.000000000000000000 ) ) ;
#130 = ORIENTED_EDGE ( 'NONE', *, *, #118, .T. ) ;
#131 = AXIS2_PLACEMENT_3D ( 'NONE', #120, #90, #143 ) ;
#132 = PRESENTATION_STYLE_ASSIGNMENT (( #67 ) ) ;
#133 = PRODUCT_DEFINITION_CONTEXT ( 'detailed design', #93, 'design' ) ;
#134 = EDGE_CURVE ( 'NONE', #2, #198, #167, .T. ) ;
#135 = DIRECTION ( 'NONE',  ( 0.0000000000000000000, 0.0000000000000000000, 1.000000000000000000 ) ) ;
#136 = LINE ( 'NONE', #108, #29 ) ;
#137 = AXIS2_PLACEMENT_3D ( 'NONE', #47, #25, #207 ) ;
#138 = CARTESIAN_POINT ( 'NONE',  ( -3.000000000000002665, 0.0000000000000000000, 0.0000000000000000000 ) ) ;
#139 = DIRECTION ( 'NONE',  ( -1.000000000000000000, -0.0000000000000000000, -0.0000000000000000000 ) ) ;
#140 = ORIENTED_EDGE ( 'NONE', *, *, #112, .F. ) ;
#141 = DIRECTION ( 'NONE',  ( 0.0000000000000000000, 0.0000000000000000000, 1.000000000000000000 ) ) ;
#142 =( NAMED_UNIT ( * ) SI_UNIT ( $, .STERADIAN. ) SOLID_ANGLE_UNIT ( ) );
#143 = DIRECTION ( 'NONE',  ( 0.0000000000000000000, 0.0000000000000000000, 1.000000000000000000 ) ) ;
#144 = DIRECTION ( 'NONE',  ( -1.000000000000000000, -0.0000000000000000000, -0.0000000000000000000 ) ) ;
#145 = ORIENTED_EDGE ( 'NONE', *, *, #134, .F. ) ;
#146 = VECTOR ( 'NONE', #144, 1000.000000000000000 ) ;
#147 = PRODUCT_CONTEXT ( 'NONE', #122, 'mechanical' ) ;
#148 = EDGE_LOOP ( 'NONE', ( #205, #168, #105, #145 ) ) ;
#149 = FACE_BOUND ( 'NONE', #64, .T. ) ;
#150 = AXIS2_PLACEMENT_3D ( 'NONE', #10, #62, #76 ) ;
#151 = ORIENTED_EDGE ( 'NONE', *, *, #156, .T. ) ;
#152 = DIRECTION ( 'NONE',  ( -1.000000000000000000, -0.0000000000000000000, -0.0000000000000000000 ) ) ;
#153 = DIRECTION ( 'NONE',  ( 0.0000000000000000000, 0.0000000000000000000, 1.000000000000000000 ) ) ;
#154 = CYLINDRICAL_SURFACE ( 'NONE', #210, 17.00000000000000000 ) ;
#155 = VERTEX_POINT ( 'NONE', #45 ) ;
#156 = EDGE_CURVE ( 'NONE', #198, #111, #14, .T. ) ;
#157 = DIRECTION ( 'NONE',  ( 0.0000000000000000000, 0.0000000000000000000, -1.000000000000000000 ) ) ;
#158 = UNCERTAINTY_MEASURE_WITH_UNIT (LENGTH_MEASURE( 1.000000000000000082E-05 ), #173, 'distance_accuracy_value', 'NONE');
#159 = FILL_AREA_STYLE_COLOUR ( '', #208 ) ;
#160 = EDGE_CURVE ( 'NONE', #155, #113, #55, .T. ) ;
#161 = ORIENTED_EDGE ( 'NONE', *, *, #160, .T. ) ;
#162 = AXIS2_PLACEMENT_3D ( 'NONE', #79, #193, #157 ) ;
#163 = ORIENTED_EDGE ( 'NONE', *, *, #13, .F. ) ;
#164 = LINE ( 'NONE', #74, #110 ) ;
#165 = STYLED_ITEM ( 'NONE', ( #132 ), #31 ) ;
#166 = AXIS2_PLACEMENT_3D ( 'NONE', #41, #204, #102 ) ;
#167 = LINE ( 'NONE', #88, #146 ) ;
#168 = ORIENTED_EDGE ( 'NONE', *, *, #82, .T. ) ;
#169 = DIRECTION ( 'NONE',  ( -1.000000000000000000, -0.0000000000000000000, -0.0000000000000000000 ) ) ;
#170 = MECHANICAL_DESIGN_GEOMETRIC_PRESENTATION_REPRESENTATION (  '', ( #176 ), #26 ) ;
#171 = CYLINDRICAL_SURFACE ( 'NONE', #32, 17.00000000000000000 ) ;
#172 = DIRECTION ( 'NONE',  ( 0.0000000000000000000, 0.0000000000000000000, 1.000000000000000000 ) ) ;
#173 =( LENGTH_UNIT ( ) NAMED_UNIT ( * ) SI_UNIT ( .MILLI., .METRE. ) );
#174 = FACE_OUTER_BOUND ( 'NONE', #58, .T. ) ;
#175 =( NAMED_UNIT ( * ) PLANE_ANGLE_UNIT ( ) SI_UNIT ( $, .RADIAN. ) );
#176 = STYLED_ITEM ( 'NONE', ( #183 ), #179 ) ;
#177 = APPLICATION_PROTOCOL_DEFINITION ( 'draft international standard', 'automotive_design', 1998, #122 ) ;
#178 = COLOUR_RGB ( '',1.000000000000000000, 0.9490196078431372140, 0.9098039215686274384 ) ;
#179 = MANIFOLD_SOLID_BREP ( 'Base-Revolve', #81 ) ;
#180 =( LENGTH_UNIT ( ) NAMED_UNIT ( * ) SI_UNIT ( .MILLI., .METRE. ) );
#181 = AXIS2_PLACEMENT_3D ( 'NONE', #20, #59, #153 ) ;
#182 = SHAPE_DEFINITION_REPRESENTATION ( #189, #31 ) ;
#183 = PRESENTATION_STYLE_ASSIGNMENT (( #8 ) ) ;
#184 = ADVANCED_FACE ( 'NONE', ( #149, #174 ), #191, .F. ) ;
#185 = CARTESIAN_POINT ( 'NONE',  ( -34.92499999999994742, 0.0000000000000000000, 0.0000000000000000000 ) ) ;
#186 = CARTESIAN_POINT ( 'NONE',  ( -34.92499999999994742, 2.081899558550500280E-15, -17.00000000000000000 ) ) ;
#187 = DIRECTION ( 'NONE',  ( 0.0000000000000000000, 0.0000000000000000000, 1.000000000000000000 ) ) ;
#188 = FACE_OUTER_BOUND ( 'NONE', #30, .T. ) ;
#189 = PRODUCT_DEFINITION_SHAPE ( 'NONE', 'NONE',  #75 ) ;
#190 = ORIENTED_EDGE ( 'NONE', *, *, #134, .T. ) ;
#191 = PLANE ( 'NONE',  #162 ) ;
#192 = AXIS2_PLACEMENT_3D ( 'NONE', #28, #87, #211 ) ;
#193 = DIRECTION ( 'NONE',  ( 1.000000000000000000, 0.0000000000000000000, 0.0000000000000000000 ) ) ;
#194 = CARTESIAN_POINT ( 'NONE',  ( -3.000000000000002665, 6.735557395310442023E-16, -5.500000000000000000 ) ) ;
#195 = EDGE_LOOP ( 'NONE', ( #95, #21, #190, #44 ) ) ;
#196 = UNCERTAINTY_MEASURE_WITH_UNIT (LENGTH_MEASURE( 1.000000000000000082E-05 ), #27, 'distance_accuracy_value', 'NONE');
#197 = VECTOR ( 'NONE', #85, 1000.000000000000000 ) ;
#198 = VERTEX_POINT ( 'NONE', #65 ) ;
#199 = ORIENTED_EDGE ( 'NONE', *, *, #15, .T. ) ;
#200 = CYLINDRICAL_SURFACE ( 'NONE', #54, 5.500000000000000000 ) ;
#201 = ADVANCED_FACE ( 'NONE', ( #80 ), #200, .F. ) ;
#202 = EDGE_CURVE ( 'NONE', #84, #91, #214, .T. ) ;
#203 = DIRECTION ( 'NONE',  ( 0.0000000000000000000, 0.0000000000000000000, 1.000000000000000000 ) ) ;
#204 = DIRECTION ( 'NONE',  ( -1.000000000000000000, 0.0000000000000000000, -0.0000000000000000000 ) ) ;
#205 = ORIENTED_EDGE ( 'NONE', *, *, #13, .T. ) ;
#206 = CARTESIAN_POINT ( 'NONE',  ( 0.0000000000000000000, 0.0000000000000000000, 0.0000000000000000000 ) ) ;
#207 = DIRECTION ( 'NONE',  ( 0.0000000000000000000, 0.0000000000000000000, 1.000000000000000000 ) ) ;
#208 = COLOUR_RGB ( '',1.000000000000000000, 0.9490196078431372140, 0.9098039215686274384 ) ;
#209 = FACE_BOUND ( 'NONE', #73, .T. ) ;
#210 = AXIS2_PLACEMENT_3D ( 'NONE', #57, #103, #203 ) ;
#211 = DIRECTION ( 'NONE',  ( 0.0000000000000000000, 0.0000000000000000000, 1.000000000000000000 ) ) ;
#212 = ORIENTED_EDGE ( 'NONE', *, *, #9, .F. ) ;
#213 =( GEOMETRIC_REPRESENTATION_CONTEXT ( 3 ) GLOBAL_UNCERTAINTY_ASSIGNED_CONTEXT ( ( #125 ) ) GLOBAL_UNIT_ASSIGNED_CONTEXT ( ( #180, #127, #52 ) ) REPRESENTATION_CONTEXT ( 'NONE', 'WORKASPACE' ) );
#214 = CIRCLE ( 'NONE', #3, 5.500000000000000000 ) ;
ENDSEC;
END-ISO-10303-21;
