ISO-10303-21;
HEADER;
FILE_DESCRIPTION(('CoCreate Modeling STEP Export'),'2;1');
FILE_NAME('6349218_org.stp','2012-06-25T10:09:11',(''),(''),
'CoCreate Modeling STEP processor for AP214 (Solid Model)',
'CoCreate Modeling 16.00D  29-May-2009 (C) Parametric Technology GmbH',
'');
FILE_SCHEMA(('AUTOMOTIVE_DESIGN { 1 0 10303 214 1 1 1 1 }'));
ENDSEC;
DATA;
#10=CARTESIAN_POINT('',(0.,0.,0.));
#20=DIRECTION('',(0.,0.,1.));
#30=DIRECTION('',(1.,0.,0.));
#40=AXIS2_PLACEMENT_3D('',#10,#20,#30);
#50=PLANE('',#40);
#60=CARTESIAN_POINT('',(0.,0.,0.));
#70=DIRECTION('',(0.,1.,0.));
#80=VECTOR('',#70,1.);
#90=LINE('',#60,#80);
#100=CARTESIAN_POINT('',(0.,0.,0.));
#110=VERTEX_POINT('',#100);
#120=CARTESIAN_POINT('',(0.,50.,0.));
#130=VERTEX_POINT('',#120);
#140=EDGE_CURVE('',#110,#130,#90,.T.);
#150=ORIENTED_EDGE('',*,*,#140,.T.);
#160=CARTESIAN_POINT('',(100.,0.,0.));
#170=DIRECTION('',(-1.,0.,0.));
#180=VECTOR('',#170,1.);
#190=LINE('',#160,#180);
#200=CARTESIAN_POINT('',(100.,0.,0.));
#210=VERTEX_POINT('',#200);
#220=EDGE_CURVE('',#210,#110,#190,.T.);
#230=ORIENTED_EDGE('',*,*,#220,.T.);
#240=CARTESIAN_POINT('',(100.,50.,0.));
#250=DIRECTION('',(0.,-1.,0.));
#260=VECTOR('',#250,1.);
#270=LINE('',#240,#260);
#280=CARTESIAN_POINT('',(100.,50.,0.));
#290=VERTEX_POINT('',#280);
#300=EDGE_CURVE('',#290,#210,#270,.T.);
#310=ORIENTED_EDGE('',*,*,#300,.T.);
#320=CARTESIAN_POINT('',(0.,50.,0.));
#330=DIRECTION('',(1.,0.,0.));
#340=VECTOR('',#330,1.);
#350=LINE('',#320,#340);
#360=EDGE_CURVE('',#130,#290,#350,.T.);
#370=ORIENTED_EDGE('',*,*,#360,.T.);
#380=EDGE_LOOP('',(#370,#310,#230,#150));
#390=FACE_OUTER_BOUND('',#380,.T.);
#400=ADVANCED_FACE('',(#390),#50,.F.);
#410=CARTESIAN_POINT('',(0.,0.,6.5));
#420=DIRECTION('',(0.,0.,1.));
#430=DIRECTION('',(1.,0.,0.));
#440=AXIS2_PLACEMENT_3D('',#410,#420,#430);
#450=PLANE('',#440);
#460=CARTESIAN_POINT('',(0.,50.,6.5));
#470=DIRECTION('',(1.,0.,0.));
#480=VECTOR('',#470,1.);
#490=LINE('',#460,#480);
#500=CARTESIAN_POINT('',(0.,50.,6.5));
#510=VERTEX_POINT('',#500);
#520=CARTESIAN_POINT('',(100.,50.,6.5));
#530=VERTEX_POINT('',#520);
#540=EDGE_CURVE('',#510,#530,#490,.T.);
#550=ORIENTED_EDGE('',*,*,#540,.F.);
#560=CARTESIAN_POINT('',(100.,0.,6.5));
#570=DIRECTION('',(0.,1.,0.));
#580=VECTOR('',#570,1.);
#590=LINE('',#560,#580);
#600=CARTESIAN_POINT('',(100.,0.,6.5));
#610=VERTEX_POINT('',#600);
#620=EDGE_CURVE('',#610,#530,#590,.T.);
#630=ORIENTED_EDGE('',*,*,#620,.T.);
#640=CARTESIAN_POINT('',(100.,0.,6.5));
#650=DIRECTION('',(-1.,0.,0.));
#660=VECTOR('',#650,1.);
#670=LINE('',#640,#660);
#680=CARTESIAN_POINT('',(0.,0.,6.5));
#690=VERTEX_POINT('',#680);
#700=EDGE_CURVE('',#610,#690,#670,.T.);
#710=ORIENTED_EDGE('',*,*,#700,.F.);
#720=CARTESIAN_POINT('',(0.,0.,6.5));
#730=DIRECTION('',(0.,-1.,0.));
#740=VECTOR('',#730,1.);
#750=LINE('',#720,#740);
#760=EDGE_CURVE('',#510,#690,#750,.T.);
#770=ORIENTED_EDGE('',*,*,#760,.T.);
#780=EDGE_LOOP('',(#770,#710,#630,#550));
#790=FACE_OUTER_BOUND('',#780,.T.);
#800=ADVANCED_FACE('',(#790),#450,.T.);
#810=CARTESIAN_POINT('',(100.,0.,0.));
#820=DIRECTION('',(-0.,-1.,-0.));
#830=DIRECTION('',(-1.,0.,0.));
#840=AXIS2_PLACEMENT_3D('',#810,#820,#830);
#850=PLANE('',#840);
#860=CARTESIAN_POINT('',(0.,0.,0.));
#870=DIRECTION('',(0.,0.,1.));
#880=VECTOR('',#870,1.);
#890=LINE('',#860,#880);
#900=EDGE_CURVE('',#110,#690,#890,.T.);
#910=ORIENTED_EDGE('',*,*,#900,.F.);
#920=ORIENTED_EDGE('',*,*,#700,.T.);
#930=CARTESIAN_POINT('',(100.,0.,0.));
#940=DIRECTION('',(0.,0.,1.));
#950=VECTOR('',#940,1.);
#960=LINE('',#930,#950);
#970=EDGE_CURVE('',#210,#610,#960,.T.);
#980=ORIENTED_EDGE('',*,*,#970,.T.);
#990=ORIENTED_EDGE('',*,*,#220,.F.);
#1000=EDGE_LOOP('',(#990,#980,#920,#910));
#1010=FACE_OUTER_BOUND('',#1000,.T.);
#1020=ADVANCED_FACE('',(#1010),#850,.T.);
#1030=CARTESIAN_POINT('',(100.,50.,0.));
#1040=DIRECTION('',(1.,0.,0.));
#1050=DIRECTION('',(0.,-1.,0.));
#1060=AXIS2_PLACEMENT_3D('',#1030,#1040,#1050);
#1070=PLANE('',#1060);
#1080=ORIENTED_EDGE('',*,*,#970,.F.);
#1090=ORIENTED_EDGE('',*,*,#620,.F.);
#1100=CARTESIAN_POINT('',(100.,50.,0.));
#1110=DIRECTION('',(0.,0.,1.));
#1120=VECTOR('',#1110,1.);
#1130=LINE('',#1100,#1120);
#1140=EDGE_CURVE('',#290,#530,#1130,.T.);
#1150=ORIENTED_EDGE('',*,*,#1140,.T.);
#1160=ORIENTED_EDGE('',*,*,#300,.F.);
#1170=EDGE_LOOP('',(#1160,#1150,#1090,#1080));
#1180=FACE_OUTER_BOUND('',#1170,.T.);
#1190=ADVANCED_FACE('',(#1180),#1070,.T.);
#1200=CARTESIAN_POINT('',(0.,50.,0.));
#1210=DIRECTION('',(-0.,1.,0.));
#1220=DIRECTION('',(1.,0.,0.));
#1230=AXIS2_PLACEMENT_3D('',#1200,#1210,#1220);
#1240=PLANE('',#1230);
#1250=ORIENTED_EDGE('',*,*,#1140,.F.);
#1260=ORIENTED_EDGE('',*,*,#540,.T.);
#1270=CARTESIAN_POINT('',(0.,50.,0.));
#1280=DIRECTION('',(0.,0.,1.));
#1290=VECTOR('',#1280,1.);
#1300=LINE('',#1270,#1290);
#1310=EDGE_CURVE('',#130,#510,#1300,.T.);
#1320=ORIENTED_EDGE('',*,*,#1310,.T.);
#1330=ORIENTED_EDGE('',*,*,#360,.F.);
#1340=EDGE_LOOP('',(#1330,#1320,#1260,#1250));
#1350=FACE_OUTER_BOUND('',#1340,.T.);
#1360=ADVANCED_FACE('',(#1350),#1240,.T.);
#1370=CARTESIAN_POINT('',(0.,0.,0.));
#1380=DIRECTION('',(-1.,0.,0.));
#1390=DIRECTION('',(0.,1.,0.));
#1400=AXIS2_PLACEMENT_3D('',#1370,#1380,#1390);
#1410=PLANE('',#1400);
#1420=ORIENTED_EDGE('',*,*,#1310,.F.);
#1430=ORIENTED_EDGE('',*,*,#760,.F.);
#1440=ORIENTED_EDGE('',*,*,#900,.T.);
#1450=ORIENTED_EDGE('',*,*,#140,.F.);
#1460=EDGE_LOOP('',(#1450,#1440,#1430,#1420));
#1470=FACE_OUTER_BOUND('',#1460,.T.);
#1480=ADVANCED_FACE('',(#1470),#1410,.T.);
#1490=CLOSED_SHELL('',(#1020,#1190,#1360,#1480,#800,#400));
#1500=MANIFOLD_SOLID_BREP('',#1490);
#1510=CARTESIAN_POINT('',(0.,0.,0.));
#1520=DIRECTION('',(0.,0.,1.));
#1530=DIRECTION('',(1.,0.,0.));
#1540=AXIS2_PLACEMENT_3D('',#1510,#1520,#1530);
#1550=APPLICATION_CONTEXT(' ');
#1560=APPLICATION_PROTOCOL_DEFINITION(' ','automotive_design',1998,#1550
);
#1570=PRODUCT_CONTEXT('',#1550,'mechanical');
#1580=PRODUCT_DEFINITION_CONTEXT('part definition',#1550,'design');
#1590=PRODUCT('Kopfplatte','Kopfplatte','',(#1570));
#1600=PRODUCT_RELATED_PRODUCT_CATEGORY('part',' ',(#1590));
#1610=PRODUCT_DEFINITION_FORMATION_WITH_SPECIFIED_SOURCE('','',#1590,
.BOUGHT.);
#1620=PRODUCT_DEFINITION('',' ',#1610,#1580);
#1630=PRODUCT_DEFINITION_SHAPE('','',#1620);
#1640=DIMENSIONAL_EXPONENTS(1.,0.,0.,0.,0.,0.,0.);
#1650=DIMENSIONAL_EXPONENTS(0.,0.,0.,0.,0.,0.,0.);
#1660=DIMENSIONAL_EXPONENTS(0.,0.,0.,0.,0.,0.,0.);
#1670=(LENGTH_UNIT() NAMED_UNIT(*) SI_UNIT(.MILLI.,.METRE.));
#1680=(NAMED_UNIT(*) PLANE_ANGLE_UNIT() SI_UNIT($,.RADIAN.));
#1690=(NAMED_UNIT(*) SI_UNIT($,.STERADIAN.) SOLID_ANGLE_UNIT());
#1700=(GEOMETRIC_REPRESENTATION_CONTEXT(3) 
GLOBAL_UNCERTAINTY_ASSIGNED_CONTEXT((#1710)) 
GLOBAL_UNIT_ASSIGNED_CONTEXT((#1670,#1680,#1690)) REPRESENTATION_CONTEXT
('',''));
#1710=UNCERTAINTY_MEASURE_WITH_UNIT(LENGTH_MEASURE(1.E-6),#1670,
'distance_accuracy_value','maximum gap value');
#1720=ADVANCED_BREP_SHAPE_REPRESENTATION('',(#1540,#1500),#1700);
#1730=SHAPE_DEFINITION_REPRESENTATION(#1630,#1720);
#1740=COLOUR_RGB('',0.600000023841858,0.600000023841858,
0.600000023841858);
#1750=FILL_AREA_STYLE_COLOUR('',#1740);
#1760=FILL_AREA_STYLE('',(#1750));
#1770=SURFACE_STYLE_FILL_AREA(#1760);
#1780=SURFACE_SIDE_STYLE('',(#1770));
#1790=SURFACE_STYLE_USAGE(.BOTH.,#1780);
#1800=PRESENTATION_STYLE_ASSIGNMENT((#1790));
#1810=STYLED_ITEM('',(#1800),#1500);
#1820=DRAUGHTING_MODEL('',(#1810),#1700);
#1830=CARTESIAN_POINT('',(0.,0.,0.));
#1840=DIRECTION('',(0.,0.,1.));
#1850=DIRECTION('',(1.,0.,0.));
#1860=AXIS2_PLACEMENT_3D('',#1830,#1840,#1850);
#1870=ITEM_DEFINED_TRANSFORMATION('Kopfplatte','',#1540,#1860);
#1880=CARTESIAN_POINT('',(80.,36.5,6.5));
#1890=DIRECTION('',(0.,1.,0.));
#1900=DIRECTION('',(0.,0.,1.));
#1910=AXIS2_PLACEMENT_3D('',#1880,#1890,#1900);
#1920=PLANE('',#1910);
#1930=CARTESIAN_POINT('',(80.,36.5,115.));
#1940=DIRECTION('',(-1.,0.,0.));
#1950=VECTOR('',#1940,1.);
#1960=LINE('',#1930,#1950);
#1970=CARTESIAN_POINT('',(80.,36.5,115.));
#1980=VERTEX_POINT('',#1970);
#1990=CARTESIAN_POINT('',(20.,36.5,115.));
#2000=VERTEX_POINT('',#1990);
#2010=EDGE_CURVE('',#1980,#2000,#1960,.T.);
#2020=ORIENTED_EDGE('',*,*,#2010,.F.);
#2030=CARTESIAN_POINT('',(20.,36.5,121.5));
#2040=DIRECTION('',(0.,0.,-1.));
#2050=VECTOR('',#2040,1.);
#2060=LINE('',#2030,#2050);
#2070=CARTESIAN_POINT('',(20.,36.5,11.5));
#2080=VERTEX_POINT('',#2070);
#2090=EDGE_CURVE('',#2000,#2080,#2060,.T.);
#2100=ORIENTED_EDGE('',*,*,#2090,.F.);
#2110=CARTESIAN_POINT('',(0.,36.5,11.5));
#2120=DIRECTION('',(1.,0.,0.));
#2130=VECTOR('',#2120,1.);
#2140=LINE('',#2110,#2130);
#2150=CARTESIAN_POINT('',(80.,36.5,11.5));
#2160=VERTEX_POINT('',#2150);
#2170=EDGE_CURVE('',#2080,#2160,#2140,.T.);
#2180=ORIENTED_EDGE('',*,*,#2170,.F.);
#2190=CARTESIAN_POINT('',(80.,36.5,121.5));
#2200=DIRECTION('',(0.,0.,-1.));
#2210=VECTOR('',#2200,1.);
#2220=LINE('',#2190,#2210);
#2230=EDGE_CURVE('',#1980,#2160,#2220,.T.);
#2240=ORIENTED_EDGE('',*,*,#2230,.T.);
#2250=EDGE_LOOP('',(#2240,#2180,#2100,#2020));
#2260=FACE_OUTER_BOUND('',#2250,.T.);
#2270=ADVANCED_FACE('',(#2260),#1920,.T.);
#2280=CARTESIAN_POINT('',(80.,13.5,115.));
#2290=DIRECTION('',(0.,-1.,0.));
#2300=DIRECTION('',(0.,0.,-1.));
#2310=AXIS2_PLACEMENT_3D('',#2280,#2290,#2300);
#2320=PLANE('',#2310);
#2330=CARTESIAN_POINT('',(0.,13.5,11.5));
#2340=DIRECTION('',(-1.,0.,0.));
#2350=VECTOR('',#2340,1.);
#2360=LINE('',#2330,#2350);
#2370=CARTESIAN_POINT('',(80.,13.5,11.5));
#2380=VERTEX_POINT('',#2370);
#2390=CARTESIAN_POINT('',(20.,13.5,11.5));
#2400=VERTEX_POINT('',#2390);
#2410=EDGE_CURVE('',#2380,#2400,#2360,.T.);
#2420=ORIENTED_EDGE('',*,*,#2410,.F.);
#2430=CARTESIAN_POINT('',(20.,13.5,121.5));
#2440=DIRECTION('',(0.,0.,-1.));
#2450=VECTOR('',#2440,1.);
#2460=LINE('',#2430,#2450);
#2470=CARTESIAN_POINT('',(20.,13.5,115.));
#2480=VERTEX_POINT('',#2470);
#2490=EDGE_CURVE('',#2480,#2400,#2460,.T.);
#2500=ORIENTED_EDGE('',*,*,#2490,.T.);
#2510=CARTESIAN_POINT('',(80.,13.5,115.));
#2520=DIRECTION('',(-1.,0.,0.));
#2530=VECTOR('',#2520,1.);
#2540=LINE('',#2510,#2530);
#2550=CARTESIAN_POINT('',(80.,13.5,115.));
#2560=VERTEX_POINT('',#2550);
#2570=EDGE_CURVE('',#2560,#2480,#2540,.T.);
#2580=ORIENTED_EDGE('',*,*,#2570,.T.);
#2590=CARTESIAN_POINT('',(80.,13.5,121.5));
#2600=DIRECTION('',(0.,0.,-1.));
#2610=VECTOR('',#2600,1.);
#2620=LINE('',#2590,#2610);
#2630=EDGE_CURVE('',#2560,#2380,#2620,.T.);
#2640=ORIENTED_EDGE('',*,*,#2630,.F.);
#2650=EDGE_LOOP('',(#2640,#2580,#2500,#2420));
#2660=FACE_OUTER_BOUND('',#2650,.T.);
#2670=ADVANCED_FACE('',(#2660),#2320,.T.);
#2680=CARTESIAN_POINT('',(80.,25.,115.));
#2690=DIRECTION('',(-1.,0.,0.));
#2700=DIRECTION('',(0.,1.,0.));
#2710=AXIS2_PLACEMENT_3D('',#2680,#2690,#2700);
#2720=CYLINDRICAL_SURFACE('',#2710,11.5);
#2730=ORIENTED_EDGE('',*,*,#2570,.F.);
#2740=CARTESIAN_POINT('',(20.,25.,115.));
#2750=DIRECTION('',(-1.,0.,0.));
#2760=DIRECTION('',(0.,1.,0.));
#2770=AXIS2_PLACEMENT_3D('',#2740,#2750,#2760);
#2780=CIRCLE('',#2770,11.5);
#2790=EDGE_CURVE('',#2480,#2000,#2780,.T.);
#2800=ORIENTED_EDGE('',*,*,#2790,.F.);
#2810=ORIENTED_EDGE('',*,*,#2010,.T.);
#2820=CARTESIAN_POINT('',(80.,25.,115.));
#2830=DIRECTION('',(-1.,0.,0.));
#2840=DIRECTION('',(0.,1.,0.));
#2850=AXIS2_PLACEMENT_3D('',#2820,#2830,#2840);
#2860=CIRCLE('',#2850,11.5);
#2870=EDGE_CURVE('',#2560,#1980,#2860,.T.);
#2880=ORIENTED_EDGE('',*,*,#2870,.T.);
#2890=EDGE_LOOP('',(#2880,#2810,#2800,#2730));
#2900=FACE_OUTER_BOUND('',#2890,.T.);
#2910=ADVANCED_FACE('',(#2900),#2720,.T.);
#2920=CARTESIAN_POINT('',(20.,13.5,121.5));
#2930=DIRECTION('',(-1.,0.,0.));
#2940=DIRECTION('',(0.,1.,0.));
#2950=AXIS2_PLACEMENT_3D('',#2920,#2930,#2940);
#2960=PLANE('',#2950);
#2970=CARTESIAN_POINT('',(20.,18.5,121.5));
#2980=DIRECTION('',(0.,0.,-1.));
#2990=VECTOR('',#2980,1.);
#3000=LINE('',#2970,#2990);
#3010=CARTESIAN_POINT('',(20.,18.5,115.));
#3020=VERTEX_POINT('',#3010);
#3030=CARTESIAN_POINT('',(20.,18.5,11.5));
#3040=VERTEX_POINT('',#3030);
#3050=EDGE_CURVE('',#3020,#3040,#3000,.T.);
#3060=ORIENTED_EDGE('',*,*,#3050,.T.);
#3070=CARTESIAN_POINT('',(20.,25.,115.));
#3080=DIRECTION('',(-1.,0.,0.));
#3090=DIRECTION('',(0.,1.,0.));
#3100=AXIS2_PLACEMENT_3D('',#3070,#3080,#3090);
#3110=CIRCLE('',#3100,6.5);
#3120=CARTESIAN_POINT('',(20.,31.5,115.));
#3130=VERTEX_POINT('',#3120);
#3140=EDGE_CURVE('',#3020,#3130,#3110,.T.);
#3150=ORIENTED_EDGE('',*,*,#3140,.F.);
#3160=CARTESIAN_POINT('',(20.,31.5,121.5));
#3170=DIRECTION('',(0.,0.,-1.));
#3180=VECTOR('',#3170,1.);
#3190=LINE('',#3160,#3180);
#3200=CARTESIAN_POINT('',(20.,31.5,11.5));
#3210=VERTEX_POINT('',#3200);
#3220=EDGE_CURVE('',#3130,#3210,#3190,.T.);
#3230=ORIENTED_EDGE('',*,*,#3220,.F.);
#3240=CARTESIAN_POINT('',(20.,0.,11.5));
#3250=DIRECTION('',(0.,1.,0.));
#3260=VECTOR('',#3250,1.);
#3270=LINE('',#3240,#3260);
#3280=EDGE_CURVE('',#3210,#2080,#3270,.T.);
#3290=ORIENTED_EDGE('',*,*,#3280,.F.);
#3300=ORIENTED_EDGE('',*,*,#2090,.T.);
#3310=ORIENTED_EDGE('',*,*,#2790,.T.);
#3320=ORIENTED_EDGE('',*,*,#2490,.F.);
#3330=CARTESIAN_POINT('',(20.,0.,11.5));
#3340=DIRECTION('',(0.,1.,0.));
#3350=VECTOR('',#3340,1.);
#3360=LINE('',#3330,#3350);
#3370=EDGE_CURVE('',#2400,#3040,#3360,.T.);
#3380=ORIENTED_EDGE('',*,*,#3370,.F.);
#3390=EDGE_LOOP('',(#3380,#3320,#3310,#3300,#3290,#3230,#3150,#3060));
#3400=FACE_OUTER_BOUND('',#3390,.T.);
#3410=ADVANCED_FACE('',(#3400),#2960,.T.);
#3420=CARTESIAN_POINT('',(80.,13.5,121.5));
#3430=DIRECTION('',(-1.,0.,0.));
#3440=DIRECTION('',(0.,1.,0.));
#3450=AXIS2_PLACEMENT_3D('',#3420,#3430,#3440);
#3460=PLANE('',#3450);
#3470=CARTESIAN_POINT('',(80.,0.,11.5));
#3480=DIRECTION('',(0.,1.,0.));
#3490=VECTOR('',#3480,1.);
#3500=LINE('',#3470,#3490);
#3510=CARTESIAN_POINT('',(80.,18.5,11.5));
#3520=VERTEX_POINT('',#3510);
#3530=EDGE_CURVE('',#2380,#3520,#3500,.T.);
#3540=ORIENTED_EDGE('',*,*,#3530,.T.);
#3550=ORIENTED_EDGE('',*,*,#2630,.T.);
#3560=ORIENTED_EDGE('',*,*,#2870,.F.);
#3570=ORIENTED_EDGE('',*,*,#2230,.F.);
#3580=CARTESIAN_POINT('',(80.,0.,11.5));
#3590=DIRECTION('',(0.,1.,0.));
#3600=VECTOR('',#3590,1.);
#3610=LINE('',#3580,#3600);
#3620=CARTESIAN_POINT('',(80.,31.5,11.5));
#3630=VERTEX_POINT('',#3620);
#3640=EDGE_CURVE('',#3630,#2160,#3610,.T.);
#3650=ORIENTED_EDGE('',*,*,#3640,.T.);
#3660=CARTESIAN_POINT('',(80.,31.5,121.5));
#3670=DIRECTION('',(0.,0.,-1.));
#3680=VECTOR('',#3670,1.);
#3690=LINE('',#3660,#3680);
#3700=CARTESIAN_POINT('',(80.,31.5,115.));
#3710=VERTEX_POINT('',#3700);
#3720=EDGE_CURVE('',#3710,#3630,#3690,.T.);
#3730=ORIENTED_EDGE('',*,*,#3720,.T.);
#3740=CARTESIAN_POINT('',(80.,25.,115.));
#3750=DIRECTION('',(-1.,0.,0.));
#3760=DIRECTION('',(0.,1.,0.));
#3770=AXIS2_PLACEMENT_3D('',#3740,#3750,#3760);
#3780=CIRCLE('',#3770,6.5);
#3790=CARTESIAN_POINT('',(80.,18.5,115.));
#3800=VERTEX_POINT('',#3790);
#3810=EDGE_CURVE('',#3800,#3710,#3780,.T.);
#3820=ORIENTED_EDGE('',*,*,#3810,.T.);
#3830=CARTESIAN_POINT('',(80.,18.5,121.5));
#3840=DIRECTION('',(0.,0.,-1.));
#3850=VECTOR('',#3840,1.);
#3860=LINE('',#3830,#3850);
#3870=EDGE_CURVE('',#3800,#3520,#3860,.T.);
#3880=ORIENTED_EDGE('',*,*,#3870,.F.);
#3890=EDGE_LOOP('',(#3880,#3820,#3730,#3650,#3570,#3560,#3550,#3540));
#3900=FACE_OUTER_BOUND('',#3890,.T.);
#3910=ADVANCED_FACE('',(#3900),#3460,.F.);
#3920=CARTESIAN_POINT('',(80.,31.5,115.));
#3930=DIRECTION('',(0.,-1.,0.));
#3940=DIRECTION('',(0.,0.,-1.));
#3950=AXIS2_PLACEMENT_3D('',#3920,#3930,#3940);
#3960=PLANE('',#3950);
#3970=CARTESIAN_POINT('',(0.,31.5,11.5));
#3980=DIRECTION('',(-1.,0.,0.));
#3990=VECTOR('',#3980,1.);
#4000=LINE('',#3970,#3990);
#4010=EDGE_CURVE('',#3630,#3210,#4000,.T.);
#4020=ORIENTED_EDGE('',*,*,#4010,.F.);
#4030=ORIENTED_EDGE('',*,*,#3220,.T.);
#4040=CARTESIAN_POINT('',(80.,31.5,115.));
#4050=DIRECTION('',(-1.,0.,0.));
#4060=VECTOR('',#4050,1.);
#4070=LINE('',#4040,#4060);
#4080=EDGE_CURVE('',#3710,#3130,#4070,.T.);
#4090=ORIENTED_EDGE('',*,*,#4080,.T.);
#4100=ORIENTED_EDGE('',*,*,#3720,.F.);
#4110=EDGE_LOOP('',(#4100,#4090,#4030,#4020));
#4120=FACE_OUTER_BOUND('',#4110,.T.);
#4130=ADVANCED_FACE('',(#4120),#3960,.T.);
#4140=CARTESIAN_POINT('',(80.,25.,115.));
#4150=DIRECTION('',(-1.,0.,0.));
#4160=DIRECTION('',(0.,1.,0.));
#4170=AXIS2_PLACEMENT_3D('',#4140,#4150,#4160);
#4180=CYLINDRICAL_SURFACE('',#4170,6.5);
#4190=ORIENTED_EDGE('',*,*,#4080,.F.);
#4200=ORIENTED_EDGE('',*,*,#3140,.T.);
#4210=CARTESIAN_POINT('',(80.,18.5,115.));
#4220=DIRECTION('',(-1.,0.,0.));
#4230=VECTOR('',#4220,1.);
#4240=LINE('',#4210,#4230);
#4250=EDGE_CURVE('',#3800,#3020,#4240,.T.);
#4260=ORIENTED_EDGE('',*,*,#4250,.T.);
#4270=ORIENTED_EDGE('',*,*,#3810,.F.);
#4280=EDGE_LOOP('',(#4270,#4260,#4200,#4190));
#4290=FACE_OUTER_BOUND('',#4280,.T.);
#4300=ADVANCED_FACE('',(#4290),#4180,.F.);
#4310=CARTESIAN_POINT('',(80.,18.5,6.5));
#4320=DIRECTION('',(0.,1.,0.));
#4330=DIRECTION('',(0.,0.,1.));
#4340=AXIS2_PLACEMENT_3D('',#4310,#4320,#4330);
#4350=PLANE('',#4340);
#4360=ORIENTED_EDGE('',*,*,#4250,.F.);
#4370=ORIENTED_EDGE('',*,*,#3050,.F.);
#4380=CARTESIAN_POINT('',(0.,18.5,11.5));
#4390=DIRECTION('',(1.,0.,0.));
#4400=VECTOR('',#4390,1.);
#4410=LINE('',#4380,#4400);
#4420=EDGE_CURVE('',#3040,#3520,#4410,.T.);
#4430=ORIENTED_EDGE('',*,*,#4420,.F.);
#4440=ORIENTED_EDGE('',*,*,#3870,.T.);
#4450=EDGE_LOOP('',(#4440,#4430,#4370,#4360));
#4460=FACE_OUTER_BOUND('',#4450,.T.);
#4470=ADVANCED_FACE('',(#4460),#4350,.T.);
#4480=CARTESIAN_POINT('',(-10.0000024,0.,11.5));
#4490=DIRECTION('',(0.,-0.,1.));
#4500=DIRECTION('',(0.,1.,0.));
#4510=AXIS2_PLACEMENT_3D('',#4480,#4490,#4500);
#4520=PLANE('',#4510);
#4530=ORIENTED_EDGE('',*,*,#3530,.F.);
#4540=ORIENTED_EDGE('',*,*,#4420,.T.);
#4550=ORIENTED_EDGE('',*,*,#3370,.T.);
#4560=ORIENTED_EDGE('',*,*,#2410,.T.);
#4570=EDGE_LOOP('',(#4560,#4550,#4540,#4530));
#4580=FACE_OUTER_BOUND('',#4570,.T.);
#4590=ADVANCED_FACE('',(#4580),#4520,.F.);
#4600=CARTESIAN_POINT('',(-10.0000024,0.,11.5));
#4610=DIRECTION('',(0.,-0.,1.));
#4620=DIRECTION('',(0.,1.,0.));
#4630=AXIS2_PLACEMENT_3D('',#4600,#4610,#4620);
#4640=PLANE('',#4630);
#4650=ORIENTED_EDGE('',*,*,#4010,.T.);
#4660=ORIENTED_EDGE('',*,*,#3640,.F.);
#4670=ORIENTED_EDGE('',*,*,#2170,.T.);
#4680=ORIENTED_EDGE('',*,*,#3280,.T.);
#4690=EDGE_LOOP('',(#4680,#4670,#4660,#4650));
#4700=FACE_OUTER_BOUND('',#4690,.T.);
#4710=ADVANCED_FACE('',(#4700),#4640,.F.);
#4720=CLOSED_SHELL('',(#2270,#2670,#2910,#3410,#3910,#4130,#4300,#4470,
#4590,#4710));
#4730=MANIFOLD_SOLID_BREP('',#4720);
#4740=APPLICATION_CONTEXT(' ');
#4750=APPLICATION_PROTOCOL_DEFINITION(' ','automotive_design',1998,#4740
);
#4760=PRODUCT_CONTEXT('',#4740,'mechanical');
#4770=PRODUCT_DEFINITION_CONTEXT('part definition',#4740,'design');
#4780=PRODUCT('Lasche','Lasche','',(#4760));
#4790=PRODUCT_RELATED_PRODUCT_CATEGORY('part',' ',(#4780));
#4800=PRODUCT_DEFINITION_FORMATION_WITH_SPECIFIED_SOURCE('','',#4780,
.BOUGHT.);
#4810=PRODUCT_DEFINITION('',' ',#4800,#4770);
#4820=PRODUCT_DEFINITION_SHAPE('','',#4810);
#4830=DIMENSIONAL_EXPONENTS(1.,0.,0.,0.,0.,0.,0.);
#4840=DIMENSIONAL_EXPONENTS(0.,0.,0.,0.,0.,0.,0.);
#4850=DIMENSIONAL_EXPONENTS(0.,0.,0.,0.,0.,0.,0.);
#4860=(LENGTH_UNIT() NAMED_UNIT(*) SI_UNIT(.MILLI.,.METRE.));
#4870=(NAMED_UNIT(*) PLANE_ANGLE_UNIT() SI_UNIT($,.RADIAN.));
#4880=(NAMED_UNIT(*) SI_UNIT($,.STERADIAN.) SOLID_ANGLE_UNIT());
#4890=(GEOMETRIC_REPRESENTATION_CONTEXT(3) 
GLOBAL_UNCERTAINTY_ASSIGNED_CONTEXT((#4900)) 
GLOBAL_UNIT_ASSIGNED_CONTEXT((#4860,#4870,#4880)) REPRESENTATION_CONTEXT
('',''));
#4900=UNCERTAINTY_MEASURE_WITH_UNIT(LENGTH_MEASURE(1.E-6),#4860,
'distance_accuracy_value','maximum gap value');
#4910=ADVANCED_BREP_SHAPE_REPRESENTATION('',(#1540,#4730),#4890);
#4920=SHAPE_DEFINITION_REPRESENTATION(#4820,#4910);
#4930=COLOUR_RGB('',0.600000023841858,0.600000023841858,
0.600000023841858);
#4940=FILL_AREA_STYLE_COLOUR('',#4930);
#4950=FILL_AREA_STYLE('',(#4940));
#4960=SURFACE_STYLE_FILL_AREA(#4950);
#4970=SURFACE_SIDE_STYLE('',(#4960));
#4980=SURFACE_STYLE_USAGE(.BOTH.,#4970);
#4990=PRESENTATION_STYLE_ASSIGNMENT((#4980));
#5000=STYLED_ITEM('',(#4990),#4730);
#5010=DRAUGHTING_MODEL('',(#5000),#4890);
#5020=CARTESIAN_POINT('',(0.,0.,-5.));
#5030=DIRECTION('',(0.,0.,1.));
#5040=DIRECTION('',(1.,0.,0.));
#5050=AXIS2_PLACEMENT_3D('',#5020,#5030,#5040);
#5060=ITEM_DEFINED_TRANSFORMATION('Lasche','',#1540,#5050);
#5070=APPLICATION_CONTEXT(' ');
#5080=APPLICATION_PROTOCOL_DEFINITION(' ','automotive_design',1998,#5070
);
#5090=PRODUCT_CONTEXT('',#5070,'mechanical');
#5100=PRODUCT_DEFINITION_CONTEXT('part definition',#5070,'design');
#5110=PRODUCT('Kopfplatte','Kopfplatte','',(#5090));
#5120=PRODUCT_RELATED_PRODUCT_CATEGORY('part',' ',(#5110));
#5130=PRODUCT_DEFINITION_FORMATION_WITH_SPECIFIED_SOURCE('','',#5110,
.BOUGHT.);
#5140=PRODUCT_DEFINITION('',' ',#5130,#5100);
#5150=PRODUCT_DEFINITION_SHAPE('','',#5140);
#5160=DIMENSIONAL_EXPONENTS(1.,0.,0.,0.,0.,0.,0.);
#5170=DIMENSIONAL_EXPONENTS(0.,0.,0.,0.,0.,0.,0.);
#5180=DIMENSIONAL_EXPONENTS(0.,0.,0.,0.,0.,0.,0.);
#5190=(LENGTH_UNIT() NAMED_UNIT(*) SI_UNIT(.MILLI.,.METRE.));
#5200=(NAMED_UNIT(*) PLANE_ANGLE_UNIT() SI_UNIT($,.RADIAN.));
#5210=(NAMED_UNIT(*) SI_UNIT($,.STERADIAN.) SOLID_ANGLE_UNIT());
#5220=(GEOMETRIC_REPRESENTATION_CONTEXT(3) 
GLOBAL_UNCERTAINTY_ASSIGNED_CONTEXT((#5230)) 
GLOBAL_UNIT_ASSIGNED_CONTEXT((#5190,#5200,#5210)) REPRESENTATION_CONTEXT
('',''));
#5230=UNCERTAINTY_MEASURE_WITH_UNIT(LENGTH_MEASURE(1.E-6),#5190,
'distance_accuracy_value','maximum gap value');
#5240=SHAPE_REPRESENTATION('',(#1540,#5050,#1860),#5220);
#5250=SHAPE_DEFINITION_REPRESENTATION(#5150,#5240);
#5260=(REPRESENTATION_RELATIONSHIP('','',#4910,#5240) 
REPRESENTATION_RELATIONSHIP_WITH_TRANSFORMATION(#5060) 
SHAPE_REPRESENTATION_RELATIONSHIP());
#5270=NEXT_ASSEMBLY_USAGE_OCCURRENCE('1','','Lasche',#5140,#4810,'');
#5280=PRODUCT_DEFINITION_SHAPE('','',#5270);
#5290=CONTEXT_DEPENDENT_SHAPE_REPRESENTATION(#5260,#5280);
#5300=(REPRESENTATION_RELATIONSHIP('','',#1720,#5240) 
REPRESENTATION_RELATIONSHIP_WITH_TRANSFORMATION(#1870) 
SHAPE_REPRESENTATION_RELATIONSHIP());
#5310=NEXT_ASSEMBLY_USAGE_OCCURRENCE('2','','Kopfplatte',#5140,#1620,'')
;
#5320=PRODUCT_DEFINITION_SHAPE('','',#5310);
#5330=CONTEXT_DEPENDENT_SHAPE_REPRESENTATION(#5300,#5320);
ENDSEC;
END-ISO-10303-21;
