ISO-10303-21;
HEADER;
FILE_DESCRIPTION (( 'STEP AP214' ),
    '1' );
FILE_NAME ('6024882.stp',
    '2016-08-10T13:04:06',
    ( '' ),
    ( '' ),
    'SwSTEP 2.0',
    'SolidWorks 2014',
    '' );
FILE_SCHEMA (( 'AUTOMOTIVE_DESIGN' ));
ENDSEC;

DATA;
#1 = PRODUCT_CONTEXT ( 'NONE', #12, 'mechanical' ) ;
#2 = PRODUCT_DEFINITION_FORMATION_WITH_SPECIFIED_SOURCE ( 'ANY', '', #52, .NOT_KNOWN. ) ;
#3 = ADVANCED_FACE ( 'NONE', ( #217 ), #331, .T. ) ;
#4 = DIRECTION ( 'NONE',  ( 1.000000000000000000, 0.0000000000000000000, 0.0000000000000000000 ) ) ;
#5 = PRODUCT_DEFINITION ( 'UNKNOWN', '', #2, #10 ) ;
#6 = AXIS2_PLACEMENT_3D ( 'NONE', #9, #8, #4 ) ;
#7 = EDGE_CURVE ( 'NONE', #223, #314, #210, .T. ) ;
#8 = DIRECTION ( 'NONE',  ( 0.0000000000000000000, 0.0000000000000000000, 1.000000000000000000 ) ) ;
#9 = CARTESIAN_POINT ( 'NONE',  ( 0.0000000000000000000, 0.0000000000000000000, 0.0000000000000000000 ) ) ;
#10 = PRODUCT_DEFINITION_CONTEXT ( 'detailed design', #32, 'design' ) ;
#11 = EDGE_CURVE ( 'NONE', #387, #298, #390, .T. ) ;
#12 = APPLICATION_CONTEXT ( 'automotive_design' ) ;
#13 =( NAMED_UNIT ( * ) SI_UNIT ( $, .STERADIAN. ) SOLID_ANGLE_UNIT ( ) );
#14 = APPLICATION_PROTOCOL_DEFINITION ( 'draft international standard', 'automotive_design', 1998, #32 ) ;
#15 =( NAMED_UNIT ( * ) PLANE_ANGLE_UNIT ( ) SI_UNIT ( $, .RADIAN. ) );
#16 =( LENGTH_UNIT ( ) NAMED_UNIT ( * ) SI_UNIT ( .MILLI., .METRE. ) );
#17 = ADVANCED_FACE ( 'NONE', ( #211 ), #271, .T. ) ;
#18 = SURFACE_STYLE_USAGE ( .BOTH. , #22 ) ;
#19 = COLOUR_RGB ( '',0.7529411764705882200, 0.7529411764705882200, 0.7529411764705882200 ) ;
#20 = ADVANCED_FACE ( 'NONE', ( #205 ), #329, .F. ) ;
#21 = ADVANCED_FACE ( 'NONE', ( #199 ), #226, .T. ) ;
#22 = SURFACE_SIDE_STYLE ('',( #174 ) ) ;
#23 = FILL_AREA_STYLE ('',( #58 ) ) ;
#24 =( GEOMETRIC_REPRESENTATION_CONTEXT ( 3 ) GLOBAL_UNCERTAINTY_ASSIGNED_CONTEXT ( ( #57 ) ) GLOBAL_UNIT_ASSIGNED_CONTEXT ( ( #16, #15, #13 ) ) REPRESENTATION_CONTEXT ( 'NONE', 'WORKASPACE' ) );
#25 = ADVANCED_FACE ( 'NONE', ( #197 ), #158, .T. ) ;
#26 = MECHANICAL_DESIGN_GEOMETRIC_PRESENTATION_REPRESENTATION (  '', ( #29 ), #24 ) ;
#27 = APPLICATION_PROTOCOL_DEFINITION ( 'draft international standard', 'automotive_design', 1998, #12 ) ;
#28 = PRESENTATION_LAYER_ASSIGNMENT (  '', '', ( #29 ) ) ;
#29 = STYLED_ITEM ( 'NONE', ( #196 ), #96 ) ;
#30 =( NAMED_UNIT ( * ) SI_UNIT ( $, .STERADIAN. ) SOLID_ANGLE_UNIT ( ) );
#31 = PRODUCT_RELATED_PRODUCT_CATEGORY ( 'part', '', ( #52 ) ) ;
#32 = APPLICATION_CONTEXT ( 'automotive_design' ) ;
#33 = VECTOR ( 'NONE', #72, 1000.000000000000000 ) ;
#34 =( NAMED_UNIT ( * ) PLANE_ANGLE_UNIT ( ) SI_UNIT ( $, .RADIAN. ) );
#35 =( NAMED_UNIT ( * ) SI_UNIT ( $, .STERADIAN. ) SOLID_ANGLE_UNIT ( ) );
#36 =( LENGTH_UNIT ( ) NAMED_UNIT ( * ) SI_UNIT ( .MILLI., .METRE. ) );
#37 =( GEOMETRIC_REPRESENTATION_CONTEXT ( 3 ) GLOBAL_UNCERTAINTY_ASSIGNED_CONTEXT ( ( #166 ) ) GLOBAL_UNIT_ASSIGNED_CONTEXT ( ( #36, #34, #30 ) ) REPRESENTATION_CONTEXT ( 'NONE', 'WORKASPACE' ) );
#38 =( GEOMETRIC_REPRESENTATION_CONTEXT ( 3 ) GLOBAL_UNCERTAINTY_ASSIGNED_CONTEXT ( ( #180 ) ) GLOBAL_UNIT_ASSIGNED_CONTEXT ( ( #41, #40, #35 ) ) REPRESENTATION_CONTEXT ( 'NONE', 'WORKASPACE' ) );
#39 = MECHANICAL_DESIGN_GEOMETRIC_PRESENTATION_REPRESENTATION (  '', ( #61 ), #38 ) ;
#40 =( NAMED_UNIT ( * ) PLANE_ANGLE_UNIT ( ) SI_UNIT ( $, .RADIAN. ) );
#41 =( LENGTH_UNIT ( ) NAMED_UNIT ( * ) SI_UNIT ( .MILLI., .METRE. ) );
#42 = SURFACE_STYLE_USAGE ( .BOTH. , #46 ) ;
#43 = DIRECTION ( 'NONE',  ( -1.000000000000000000, -0.0000000000000000000, -0.0000000000000000000 ) ) ;
#44 = PRESENTATION_STYLE_ASSIGNMENT (( #42 ) ) ;
#45 = COLOUR_RGB ( '',0.7529411764705882200, 0.7529411764705882200, 0.7529411764705882200 ) ;
#46 = SURFACE_SIDE_STYLE ('',( #85 ) ) ;
#47 = PRESENTATION_LAYER_ASSIGNMENT (  '', '', ( #61 ) ) ;
#48 = VERTEX_POINT ( 'NONE', #98 ) ;
#49 = FILL_AREA_STYLE ('',( #51 ) ) ;
#50 = CARTESIAN_POINT ( 'NONE',  ( 64.79999999999999700, 1.799999999999996000, 0.0000000000000000000 ) ) ;
#51 = FILL_AREA_STYLE_COLOUR ( '', #45 ) ;
#52 = PRODUCT ( '6024882', '6024882', '', ( #1 ) ) ;
#53 = AXIS2_PLACEMENT_3D ( 'NONE', #160, #157, #152 ) ;
#54 = CARTESIAN_POINT ( 'NONE',  ( -61.00000000000000000, 1.799999999999999800, -148.0999999999999900 ) ) ;
#55 = VECTOR ( 'NONE', #75, 1000.000000000000000 ) ;
#56 = CARTESIAN_POINT ( 'NONE',  ( 64.14000000000000100, 13.63999999999999900, -148.0000000000000000 ) ) ;
#57 = UNCERTAINTY_MEASURE_WITH_UNIT (LENGTH_MEASURE( 1.000000000000000100E-005 ), #16, 'distance_accuracy_value', 'NONE');
#58 = FILL_AREA_STYLE_COLOUR ( '', #19 ) ;
#59 = PRODUCT_DEFINITION_SHAPE ( 'NONE', 'NONE',  #5 ) ;
#60 = CARTESIAN_POINT ( 'NONE',  ( -61.00000000000000000, -3.148819142921778400E-016, -148.0000000000000000 ) ) ;
#61 = STYLED_ITEM ( 'NONE', ( #44 ), #400 ) ;
#62 = DIRECTION ( 'NONE',  ( -1.000000000000000000, -0.0000000000000000000, -0.0000000000000000000 ) ) ;
#63 = LINE ( 'NONE', #69, #70 ) ;
#64 = LINE ( 'NONE', #68, #55 ) ;
#65 = AXIS2_PLACEMENT_3D ( 'NONE', #231, #201, #200 ) ;
#66 = VECTOR ( 'NONE', #92, 1000.000000000000000 ) ;
#67 = DIRECTION ( 'NONE',  ( 0.0000000000000000000, -1.000000000000000000, 0.0000000000000000000 ) ) ;
#68 = CARTESIAN_POINT ( 'NONE',  ( -61.00000000000000000, 1.799999999999999800, -148.0000000000000000 ) ) ;
#69 = CARTESIAN_POINT ( 'NONE',  ( 61.00000000000000000, 1.799999999999999800, -148.0999999999999900 ) ) ;
#70 = VECTOR ( 'NONE', #62, 1000.000000000000000 ) ;
#71 = VECTOR ( 'NONE', #101, 1000.000000000000000 ) ;
#72 = DIRECTION ( 'NONE',  ( -0.0000000000000000000, -0.0000000000000000000, 1.000000000000000000 ) ) ;
#73 = LINE ( 'NONE', #74, #33 ) ;
#74 = CARTESIAN_POINT ( 'NONE',  ( 61.00000000000000000, 1.799999999999999800, -148.0000000000000000 ) ) ;
#75 = DIRECTION ( 'NONE',  ( -0.0000000000000000000, -0.0000000000000000000, 1.000000000000000000 ) ) ;
#76 = CARTESIAN_POINT ( 'NONE',  ( 61.00000000000000000, 0.0000000000000000000, -150.0000000000000000 ) ) ;
#77 = VECTOR ( 'NONE', #114, 1000.000000000000000 ) ;
#78 = CARTESIAN_POINT ( 'NONE',  ( -64.79999999999999700, -7.806255641895631900E-015, -148.0000000000000000 ) ) ;
#79 = LINE ( 'NONE', #108, #71 ) ;
#80 = LINE ( 'NONE', #97, #66 ) ;
#81 = VECTOR ( 'NONE', #130, 1000.000000000000000 ) ;
#82 = CARTESIAN_POINT ( 'NONE',  ( -61.00000000000000000, 1.799999999999996000, -148.0000000000000000 ) ) ;
#83 = AXIS2_PLACEMENT_3D ( 'NONE', #262, #255, #250 ) ;
#84 = LINE ( 'NONE', #150, #81 ) ;
#85 = SURFACE_STYLE_FILL_AREA ( #49 ) ;
#86 = LINE ( 'NONE', #137, #91 ) ;
#87 = EDGE_CURVE ( 'NONE', #287, #399, #207, .T. ) ;
#88 = CARTESIAN_POINT ( 'NONE',  ( 61.00000000000000000, 101.0000000000000000, -150.0000000000000000 ) ) ;
#89 = VECTOR ( 'NONE', #136, 1000.000000000000000 ) ;
#90 = DIRECTION ( 'NONE',  ( -0.0000000000000000000, -1.000000000000000000, -0.0000000000000000000 ) ) ;
#91 = VECTOR ( 'NONE', #126, 1000.000000000000000 ) ;
#92 = DIRECTION ( 'NONE',  ( -0.0000000000000000000, -1.000000000000000000, -0.0000000000000000000 ) ) ;
#93 = LINE ( 'NONE', #116, #77 ) ;
#94 = CARTESIAN_POINT ( 'NONE',  ( -61.00000000000000000, -7.806255641895631900E-015, -148.0000000000000000 ) ) ;
#95 = LINE ( 'NONE', #140, #89 ) ;
#96 = ADVANCED_BREP_SHAPE_REPRESENTATION ( '6024882', ( #400, #6 ), #37 ) ;
#97 = CARTESIAN_POINT ( 'NONE',  ( -64.79999999999999700, -7.806255641895631900E-015, -148.0000000000000000 ) ) ;
#98 = CARTESIAN_POINT ( 'NONE',  ( -64.79999999999999700, -7.806255641895631900E-015, 0.0000000000000000000 ) ) ;
#99 = FACE_OUTER_BOUND ( 'NONE', #241, .T. ) ;
#100 = VECTOR ( 'NONE', #164, 1000.000000000000000 ) ;
#101 = DIRECTION ( 'NONE',  ( 0.0000000000000000000, 0.0000000000000000000, 1.000000000000000000 ) ) ;
#102 = EDGE_CURVE ( 'NONE', #385, #383, #203, .T. ) ;
#103 = VECTOR ( 'NONE', #146, 1000.000000000000000 ) ;
#104 = VECTOR ( 'NONE', #182, 1000.000000000000000 ) ;
#105 = LINE ( 'NONE', #145, #103 ) ;
#106 = LINE ( 'NONE', #220, #104 ) ;
#107 = AXIS2_PLACEMENT_3D ( 'NONE', #267, #279, #263 ) ;
#108 = CARTESIAN_POINT ( 'NONE',  ( -64.79999999999999700, 1.799999999999996000, -148.0000000000000000 ) ) ;
#109 = LINE ( 'NONE', #191, #100 ) ;
#110 = VECTOR ( 'NONE', #198, 1000.000000000000000 ) ;
#111 = CARTESIAN_POINT ( 'NONE',  ( 61.00000000000000000, 1.799999999999999800, -148.0999999999999900 ) ) ;
#112 = VECTOR ( 'NONE', #204, 1000.000000000000000 ) ;
#113 = AXIS2_PLACEMENT_3D ( 'NONE', #275, #270, #269 ) ;
#114 = DIRECTION ( 'NONE',  ( -0.0000000000000000000, 1.574409571460887700E-016, -1.000000000000000000 ) ) ;
#115 = CARTESIAN_POINT ( 'NONE',  ( 64.79999999999999700, 1.799999999999996000, -148.0000000000000000 ) ) ;
#116 = CARTESIAN_POINT ( 'NONE',  ( 61.00000000000000000, 0.0000000000000000000, -150.0000000000000000 ) ) ;
#117 = EDGE_CURVE ( 'NONE', #298, #314, #190, .T. ) ;
#118 = DIRECTION ( 'NONE',  ( 0.0000000000000000000, 0.0000000000000000000, 1.000000000000000000 ) ) ;
#119 = ADVANCED_FACE ( 'NONE', ( #187 ), #392, .F. ) ;
#120 = LINE ( 'NONE', #193, #110 ) ;
#121 = VECTOR ( 'NONE', #219, 1000.000000000000000 ) ;
#122 = DIRECTION ( 'NONE',  ( -1.000000000000000000, 0.0000000000000000000, 0.0000000000000000000 ) ) ;
#123 = AXIS2_PLACEMENT_3D ( 'NONE', #347, #300, #292 ) ;
#124 = LINE ( 'NONE', #230, #128 ) ;
#125 = LINE ( 'NONE', #237, #121 ) ;
#126 = DIRECTION ( 'NONE',  ( -1.000000000000000000, -0.0000000000000000000, -0.0000000000000000000 ) ) ;
#127 = LINE ( 'NONE', #209, #112 ) ;
#128 = VECTOR ( 'NONE', #225, 1000.000000000000000 ) ;
#129 = CARTESIAN_POINT ( 'NONE',  ( -61.00000000000000000, 101.0000000000000000, -148.0999999999999900 ) ) ;
#130 = DIRECTION ( 'NONE',  ( -0.0000000000000000000, 1.574409571460887700E-016, -1.000000000000000000 ) ) ;
#131 = FACE_OUTER_BOUND ( 'NONE', #246, .T. ) ;
#132 = VECTOR ( 'NONE', #278, 1000.000000000000000 ) ;
#133 = FACE_OUTER_BOUND ( 'NONE', #249, .T. ) ;
#134 = VERTEX_POINT ( 'NONE', #50 ) ;
#135 = CARTESIAN_POINT ( 'NONE',  ( 64.79999999999999700, -7.806255641895631900E-015, -148.0000000000000000 ) ) ;
#136 = DIRECTION ( 'NONE',  ( 0.0000000000000000000, 0.0000000000000000000, 1.000000000000000000 ) ) ;
#137 = CARTESIAN_POINT ( 'NONE',  ( 61.00000000000000000, 0.0000000000000000000, -150.0000000000000000 ) ) ;
#138 = DIRECTION ( 'NONE',  ( 1.000000000000000000, 0.0000000000000000000, -0.0000000000000000000 ) ) ;
#139 = FACE_OUTER_BOUND ( 'NONE', #243, .T. ) ;
#140 = CARTESIAN_POINT ( 'NONE',  ( -64.79999999999999700, -7.806255641895631900E-015, -148.0000000000000000 ) ) ;
#141 = LINE ( 'NONE', #286, #147 ) ;
#142 = LINE ( 'NONE', #283, #132 ) ;
#143 = FACE_OUTER_BOUND ( 'NONE', #248, .T. ) ;
#144 = VECTOR ( 'NONE', #303, 1000.000000000000000 ) ;
#145 = CARTESIAN_POINT ( 'NONE',  ( 64.79999999999999700, -7.806255641895631900E-015, -148.0000000000000000 ) ) ;
#146 = DIRECTION ( 'NONE',  ( 0.0000000000000000000, 0.0000000000000000000, 1.000000000000000000 ) ) ;
#147 = VECTOR ( 'NONE', #284, 1000.000000000000000 ) ;
#148 = VECTOR ( 'NONE', #315, 1000.000000000000000 ) ;
#149 = LINE ( 'NONE', #312, #144 ) ;
#150 = CARTESIAN_POINT ( 'NONE',  ( -61.00000000000000000, 0.0000000000000000000, -150.0000000000000000 ) ) ;
#151 = EDGE_CURVE ( 'NONE', #295, #287, #175, .T. ) ;
#152 = DIRECTION ( 'NONE',  ( 0.0000000000000000000, 0.0000000000000000000, 1.000000000000000000 ) ) ;
#153 = AXIS2_PLACEMENT_3D ( 'NONE', #56, #389, #384 ) ;
#154 = VECTOR ( 'NONE', #320, 1000.000000000000000 ) ;
#155 = FACE_OUTER_BOUND ( 'NONE', #234, .T. ) ;
#156 = VECTOR ( 'NONE', #340, 1000.000000000000000 ) ;
#157 = DIRECTION ( 'NONE',  ( -1.000000000000000000, 0.0000000000000000000, 0.0000000000000000000 ) ) ;
#158 = PLANE ( 'NONE',  #159 ) ;
#159 = AXIS2_PLACEMENT_3D ( 'NONE', #162, #122, #118 ) ;
#160 = CARTESIAN_POINT ( 'NONE',  ( 61.00000000000000000, 0.0000000000000000000, 0.0000000000000000000 ) ) ;
#161 = LINE ( 'NONE', #325, #154 ) ;
#162 = CARTESIAN_POINT ( 'NONE',  ( -64.79999999999999700, -7.806255641895631900E-015, -148.0000000000000000 ) ) ;
#163 = EDGE_CURVE ( 'NONE', #295, #381, #173, .T. ) ;
#164 = DIRECTION ( 'NONE',  ( 0.0000000000000000000, 1.000000000000000000, 0.0000000000000000000 ) ) ;
#165 = VECTOR ( 'NONE', #344, 1000.000000000000000 ) ;
#166 = UNCERTAINTY_MEASURE_WITH_UNIT (LENGTH_MEASURE( 1.000000000000000100E-005 ), #36, 'distance_accuracy_value', 'NONE');
#167 = LINE ( 'NONE', #367, #148 ) ;
#168 = LINE ( 'NONE', #351, #165 ) ;
#169 = VECTOR ( 'NONE', #365, 1000.000000000000000 ) ;
#170 = EDGE_CURVE ( 'NONE', #321, #364, #168, .T. ) ;
#171 = DIRECTION ( 'NONE',  ( 0.0000000000000000000, 0.0000000000000000000, 1.000000000000000000 ) ) ;
#172 = AXIS2_PLACEMENT_3D ( 'NONE', #213, #176, #171 ) ;
#173 = LINE ( 'NONE', #382, #178 ) ;
#174 = SURFACE_STYLE_FILL_AREA ( #23 ) ;
#175 = LINE ( 'NONE', #397, #169 ) ;
#176 = DIRECTION ( 'NONE',  ( -1.000000000000000000, 0.0000000000000000000, 0.0000000000000000000 ) ) ;
#177 = DIRECTION ( 'NONE',  ( 0.0000000000000000000, 0.0000000000000000000, 1.000000000000000000 ) ) ;
#178 = VECTOR ( 'NONE', #355, 1000.000000000000000 ) ;
#179 = VECTOR ( 'NONE', #43, 1000.000000000000000 ) ;
#180 = UNCERTAINTY_MEASURE_WITH_UNIT (LENGTH_MEASURE( 1.000000000000000100E-005 ), #41, 'distance_accuracy_value', 'NONE');
#181 = EDGE_CURVE ( 'NONE', #386, #383, #186, .T. ) ;
#182 = DIRECTION ( 'NONE',  ( 0.0000000000000000000, 0.0000000000000000000, -1.000000000000000000 ) ) ;
#183 = EDGE_CURVE ( 'NONE', #253, #48, #161, .T. ) ;
#184 = PLANE ( 'NONE',  #53 ) ;
#185 = AXIS2_PLACEMENT_3D ( 'NONE', #296, #212, #138 ) ;
#186 = LINE ( 'NONE', #361, #156 ) ;
#187 = FACE_OUTER_BOUND ( 'NONE', #247, .T. ) ;
#188 = VECTOR ( 'NONE', #67, 1000.000000000000000 ) ;
#189 = EDGE_CURVE ( 'NONE', #134, #253, #167, .T. ) ;
#190 = LINE ( 'NONE', #88, #179 ) ;
#191 = CARTESIAN_POINT ( 'NONE',  ( 64.79999999999999700, -7.806255641895631900E-015, 0.0000000000000000000 ) ) ;
#192 = EDGE_CURVE ( 'NONE', #385, #289, #149, .T. ) ;
#193 = CARTESIAN_POINT ( 'NONE',  ( 64.79999999999999700, -7.806255641895631900E-015, 0.0000000000000000000 ) ) ;
#194 = ADVANCED_FACE ( 'NONE', ( #155 ), #301, .T. ) ;
#195 = VECTOR ( 'NONE', #90, 1000.000000000000000 ) ;
#196 = PRESENTATION_STYLE_ASSIGNMENT (( #18 ) ) ;
#197 = FACE_OUTER_BOUND ( 'NONE', #228, .T. ) ;
#198 = DIRECTION ( 'NONE',  ( 1.000000000000000000, -0.0000000000000000000, -0.0000000000000000000 ) ) ;
#199 = FACE_OUTER_BOUND ( 'NONE', #252, .T. ) ;
#200 = DIRECTION ( 'NONE',  ( -1.000000000000000000, 0.0000000000000000000, -0.0000000000000000000 ) ) ;
#201 = DIRECTION ( 'NONE',  ( 0.0000000000000000000, 0.0000000000000000000, -1.000000000000000000 ) ) ;
#202 = PLANE ( 'NONE',  #65 ) ;
#203 = LINE ( 'NONE', #60, #195 ) ;
#204 = DIRECTION ( 'NONE',  ( 0.0000000000000000000, 1.000000000000000000, 0.0000000000000000000 ) ) ;
#205 = FACE_OUTER_BOUND ( 'NONE', #305, .T. ) ;
#206 = VECTOR ( 'NONE', #352, 1000.000000000000000 ) ;
#207 = LINE ( 'NONE', #129, #188 ) ;
#208 = AXIS2_PLACEMENT_3D ( 'NONE', #316, #177, #215 ) ;
#209 = CARTESIAN_POINT ( 'NONE',  ( 64.79999999999999700, -7.806255641895631900E-015, -148.0000000000000000 ) ) ;
#210 = LINE ( 'NONE', #299, #216 ) ;
#211 = FACE_OUTER_BOUND ( 'NONE', #265, .T. ) ;
#212 = DIRECTION ( 'NONE',  ( 0.0000000000000000000, 0.0000000000000000000, 1.000000000000000000 ) ) ;
#213 = CARTESIAN_POINT ( 'NONE',  ( -61.00000000000000000, 0.0000000000000000000, 0.0000000000000000000 ) ) ;
#214 = EDGE_CURVE ( 'NONE', #314, #287, #141, .T. ) ;
#215 = DIRECTION ( 'NONE',  ( 1.000000000000000000, 0.0000000000000000000, -0.0000000000000000000 ) ) ;
#216 = VECTOR ( 'NONE', #288, 1000.000000000000000 ) ;
#217 = FACE_OUTER_BOUND ( 'NONE', #335, .T. ) ;
#218 = AXIS2_PLACEMENT_3D ( 'NONE', #313, #354, #349 ) ;
#219 = DIRECTION ( 'NONE',  ( -0.0000000000000000000, -1.000000000000000000, -0.0000000000000000000 ) ) ;
#220 = CARTESIAN_POINT ( 'NONE',  ( 64.79999999999999700, 1.799999999999996000, -148.0000000000000000 ) ) ;
#221 = VERTEX_POINT ( 'NONE', #291 ) ;
#222 = ORIENTED_EDGE ( 'NONE', *, *, #366, .T. ) ;
#223 = VERTEX_POINT ( 'NONE', #290 ) ;
#224 = ORIENTED_EDGE ( 'NONE', *, *, #332, .T. ) ;
#225 = DIRECTION ( 'NONE',  ( -1.000000000000000000, -0.0000000000000000000, -0.0000000000000000000 ) ) ;
#226 = PLANE ( 'NONE',  #172 ) ;
#227 = EDGE_CURVE ( 'NONE', #298, #295, #142, .T. ) ;
#228 = EDGE_LOOP ( 'NONE', ( #244, #254, #259, #266 ) ) ;
#229 = ORIENTED_EDGE ( 'NONE', *, *, #373, .F. ) ;
#230 = CARTESIAN_POINT ( 'NONE',  ( -63.00000000000000000, 1.799999999999996000, -148.0000000000000000 ) ) ;
#231 = CARTESIAN_POINT ( 'NONE',  ( 61.00000000000000000, 101.0000000000000000, -148.0999999999999900 ) ) ;
#232 = CARTESIAN_POINT ( 'NONE',  ( 61.00000000000000000, -3.148819142921778400E-016, -148.0000000000000000 ) ) ;
#233 = ORIENTED_EDGE ( 'NONE', *, *, #189, .T. ) ;
#234 = EDGE_LOOP ( 'NONE', ( #368, #393, #395, #224 ) ) ;
#235 = ORIENTED_EDGE ( 'NONE', *, *, #374, .F. ) ;
#236 = ORIENTED_EDGE ( 'NONE', *, *, #170, .T. ) ;
#237 = CARTESIAN_POINT ( 'NONE',  ( 61.00000000000000000, -3.148819142921778400E-016, -148.0000000000000000 ) ) ;
#238 = ADVANCED_FACE ( 'NONE', ( #131 ), #302, .T. ) ;
#239 = CARTESIAN_POINT ( 'NONE',  ( -61.00000000000000000, 101.0000000000000000, -150.0000000000000000 ) ) ;
#240 = ORIENTED_EDGE ( 'NONE', *, *, #360, .T. ) ;
#241 = EDGE_LOOP ( 'NONE', ( #369, #370, #371, #372, #375, #343 ) ) ;
#242 = CARTESIAN_POINT ( 'NONE',  ( -64.79999999999999700, 1.799999999999996000, -148.0000000000000000 ) ) ;
#243 = EDGE_LOOP ( 'NONE', ( #322, #323, #324, #326 ) ) ;
#244 = ORIENTED_EDGE ( 'NONE', *, *, #379, .F. ) ;
#245 = CARTESIAN_POINT ( 'NONE',  ( 61.00000000000000000, 101.0000000000000000, -150.0000000000000000 ) ) ;
#246 = EDGE_LOOP ( 'NONE', ( #272, #273, #274, #277, #280, #281, #282, #293 ) ) ;
#247 = EDGE_LOOP ( 'NONE', ( #294, #297, #304, #307 ) ) ;
#248 = EDGE_LOOP ( 'NONE', ( #358, #359, #363, #356 ) ) ;
#249 = EDGE_LOOP ( 'NONE', ( #338, #341, #348, #357 ) ) ;
#250 = DIRECTION ( 'NONE',  ( 0.0000000000000000000, -0.0000000000000000000, -1.000000000000000000 ) ) ;
#251 = ADVANCED_FACE ( 'NONE', ( #139 ), #264, .F. ) ;
#252 = EDGE_LOOP ( 'NONE', ( #377, #346, #398, #328, #378, #311 ) ) ;
#253 = VERTEX_POINT ( 'NONE', #276 ) ;
#254 = ORIENTED_EDGE ( 'NONE', *, *, #380, .T. ) ;
#255 = DIRECTION ( 'NONE',  ( 0.0000000000000000000, -1.000000000000000000, 0.0000000000000000000 ) ) ;
#256 = CARTESIAN_POINT ( 'NONE',  ( 61.00000000000000000, 101.0000000000000000, -148.0999999999999900 ) ) ;
#257 = CARTESIAN_POINT ( 'NONE',  ( 64.79999999999999700, -7.806255641895631900E-015, 0.0000000000000000000 ) ) ;
#258 = CLOSED_SHELL ( 'NONE', ( #20, #194, #3, #25, #238, #119, #17, #251, #285, #333, #350, #21 ) ) ;
#259 = ORIENTED_EDGE ( 'NONE', *, *, #362, .T. ) ;
#260 = PLANE ( 'NONE',  #83 ) ;
#261 = VERTEX_POINT ( 'NONE', #257 ) ;
#262 = CARTESIAN_POINT ( 'NONE',  ( 61.00000000000000000, 101.0000000000000000, -150.0000000000000000 ) ) ;
#263 = DIRECTION ( 'NONE',  ( 1.000000000000000000, 0.0000000000000000000, 0.0000000000000000000 ) ) ;
#264 = PLANE ( 'NONE',  #107 ) ;
#265 = EDGE_LOOP ( 'NONE', ( #233, #309, #310, #317 ) ) ;
#266 = ORIENTED_EDGE ( 'NONE', *, *, #183, .F. ) ;
#267 = CARTESIAN_POINT ( 'NONE',  ( 61.00000000000000000, 101.0000000000000000, -150.0000000000000000 ) ) ;
#268 = CARTESIAN_POINT ( 'NONE',  ( -61.00000000000000000, 101.0000000000000000, -148.0999999999999900 ) ) ;
#269 = DIRECTION ( 'NONE',  ( 0.0000000000000000000, -0.0000000000000000000, 1.000000000000000000 ) ) ;
#270 = DIRECTION ( 'NONE',  ( 0.0000000000000000000, 1.000000000000000000, 0.0000000000000000000 ) ) ;
#271 = PLANE ( 'NONE',  #208 ) ;
#272 = ORIENTED_EDGE ( 'NONE', *, *, #327, .T. ) ;
#273 = ORIENTED_EDGE ( 'NONE', *, *, #388, .F. ) ;
#274 = ORIENTED_EDGE ( 'NONE', *, *, #391, .T. ) ;
#275 = CARTESIAN_POINT ( 'NONE',  ( -63.00000000000000000, 1.799999999999996000, -148.0000000000000000 ) ) ;
#276 = CARTESIAN_POINT ( 'NONE',  ( -64.79999999999999700, 1.799999999999996000, 0.0000000000000000000 ) ) ;
#277 = ORIENTED_EDGE ( 'NONE', *, *, #396, .T. ) ;
#278 = DIRECTION ( 'NONE',  ( 0.0000000000000000000, 0.0000000000000000000, 1.000000000000000000 ) ) ;
#279 = DIRECTION ( 'NONE',  ( -0.0000000000000000000, 0.0000000000000000000, 1.000000000000000000 ) ) ;
#280 = ORIENTED_EDGE ( 'NONE', *, *, #192, .T. ) ;
#281 = ORIENTED_EDGE ( 'NONE', *, *, #379, .T. ) ;
#282 = ORIENTED_EDGE ( 'NONE', *, *, #189, .F. ) ;
#283 = CARTESIAN_POINT ( 'NONE',  ( 61.00000000000000000, 101.0000000000000000, -150.0000000000000000 ) ) ;
#284 = DIRECTION ( 'NONE',  ( 0.0000000000000000000, 0.0000000000000000000, 1.000000000000000000 ) ) ;
#285 = ADVANCED_FACE ( 'NONE', ( #133 ), #260, .F. ) ;
#286 = CARTESIAN_POINT ( 'NONE',  ( -61.00000000000000000, 101.0000000000000000, -150.0000000000000000 ) ) ;
#287 = VERTEX_POINT ( 'NONE', #268 ) ;
#288 = DIRECTION ( 'NONE',  ( -0.0000000000000000000, 1.000000000000000000, -0.0000000000000000000 ) ) ;
#289 = VERTEX_POINT ( 'NONE', #242 ) ;
#290 = CARTESIAN_POINT ( 'NONE',  ( -61.00000000000000000, 0.0000000000000000000, -150.0000000000000000 ) ) ;
#291 = CARTESIAN_POINT ( 'NONE',  ( 61.00000000000000000, 1.799999999999996000, -148.0000000000000000 ) ) ;
#292 = DIRECTION ( 'NONE',  ( 0.0000000000000000000, 0.0000000000000000000, -1.000000000000000000 ) ) ;
#293 = ORIENTED_EDGE ( 'NONE', *, *, #339, .T. ) ;
#294 = ORIENTED_EDGE ( 'NONE', *, *, #380, .F. ) ;
#295 = VERTEX_POINT ( 'NONE', #256 ) ;
#296 = CARTESIAN_POINT ( 'NONE',  ( 64.14000000000000100, 13.63999999999999900, -148.0000000000000000 ) ) ;
#297 = ORIENTED_EDGE ( 'NONE', *, *, #192, .F. ) ;
#298 = VERTEX_POINT ( 'NONE', #245 ) ;
#299 = CARTESIAN_POINT ( 'NONE',  ( -61.00000000000000000, 101.0000000000000000, -150.0000000000000000 ) ) ;
#300 = DIRECTION ( 'NONE',  ( 1.000000000000000000, 0.0000000000000000000, 0.0000000000000000000 ) ) ;
#301 = PLANE ( 'NONE',  #123 ) ;
#302 = PLANE ( 'NONE',  #113 ) ;
#303 = DIRECTION ( 'NONE',  ( -1.000000000000000000, -0.0000000000000000000, -0.0000000000000000000 ) ) ;
#304 = ORIENTED_EDGE ( 'NONE', *, *, #102, .T. ) ;
#305 = EDGE_LOOP ( 'NONE', ( #319, #318, #334, #353 ) ) ;
#306 = ORIENTED_EDGE ( 'NONE', *, *, #337, .F. ) ;
#307 = ORIENTED_EDGE ( 'NONE', *, *, #181, .F. ) ;
#308 = SHAPE_DEFINITION_REPRESENTATION ( #59, #96 ) ;
#309 = ORIENTED_EDGE ( 'NONE', *, *, #183, .T. ) ;
#310 = ORIENTED_EDGE ( 'NONE', *, *, #337, .T. ) ;
#311 = ORIENTED_EDGE ( 'NONE', *, *, #214, .F. ) ;
#312 = CARTESIAN_POINT ( 'NONE',  ( -63.00000000000000000, 1.799999999999996000, -148.0000000000000000 ) ) ;
#313 = CARTESIAN_POINT ( 'NONE',  ( 64.79999999999999700, -7.806255641895631900E-015, -148.0000000000000000 ) ) ;
#314 = VERTEX_POINT ( 'NONE', #239 ) ;
#315 = DIRECTION ( 'NONE',  ( -1.000000000000000000, -0.0000000000000000000, -0.0000000000000000000 ) ) ;
#316 = CARTESIAN_POINT ( 'NONE',  ( 64.14000000000000100, 13.63999999999999900, 0.0000000000000000000 ) ) ;
#317 = ORIENTED_EDGE ( 'NONE', *, *, #342, .T. ) ;
#318 = ORIENTED_EDGE ( 'NONE', *, *, #332, .F. ) ;
#319 = ORIENTED_EDGE ( 'NONE', *, *, #327, .F. ) ;
#320 = DIRECTION ( 'NONE',  ( -0.0000000000000000000, -1.000000000000000000, -0.0000000000000000000 ) ) ;
#321 = VERTEX_POINT ( 'NONE', #232 ) ;
#322 = ORIENTED_EDGE ( 'NONE', *, *, #7, .T. ) ;
#323 = ORIENTED_EDGE ( 'NONE', *, *, #117, .F. ) ;
#324 = ORIENTED_EDGE ( 'NONE', *, *, #11, .F. ) ;
#325 = CARTESIAN_POINT ( 'NONE',  ( -64.79999999999999700, -7.806255641895631900E-015, 0.0000000000000000000 ) ) ;
#326 = ORIENTED_EDGE ( 'NONE', *, *, #373, .T. ) ;
#327 = EDGE_CURVE ( 'NONE', #376, #221, #124, .T. ) ;
#328 = ORIENTED_EDGE ( 'NONE', *, *, #396, .F. ) ;
#329 = PLANE ( 'NONE',  #185 ) ;
#330 = EDGE_CURVE ( 'NONE', #221, #321, #125, .T. ) ;
#331 = PLANE ( 'NONE',  #218 ) ;
#332 = EDGE_CURVE ( 'NONE', #364, #376, #127, .T. ) ;
#333 = ADVANCED_FACE ( 'NONE', ( #143 ), #202, .F. ) ;
#334 = ORIENTED_EDGE ( 'NONE', *, *, #170, .F. ) ;
#335 = EDGE_LOOP ( 'NONE', ( #306, #394, #336, #222, #229, #235, #236, #240 ) ) ;
#336 = ORIENTED_EDGE ( 'NONE', *, *, #181, .T. ) ;
#337 = EDGE_CURVE ( 'NONE', #48, #261, #120, .T. ) ;
#338 = ORIENTED_EDGE ( 'NONE', *, *, #214, .T. ) ;
#339 = EDGE_CURVE ( 'NONE', #134, #376, #106, .T. ) ;
#340 = DIRECTION ( 'NONE',  ( 1.000000000000000000, -0.0000000000000000000, -0.0000000000000000000 ) ) ;
#341 = ORIENTED_EDGE ( 'NONE', *, *, #151, .F. ) ;
#342 = EDGE_CURVE ( 'NONE', #261, #134, #109, .T. ) ;
#343 = ORIENTED_EDGE ( 'NONE', *, *, #374, .T. ) ;
#344 = DIRECTION ( 'NONE',  ( 1.000000000000000000, -0.0000000000000000000, -0.0000000000000000000 ) ) ;
#345 = CARTESIAN_POINT ( 'NONE',  ( 61.00000000000000000, 101.0000000000000000, -150.0000000000000000 ) ) ;
#346 = ORIENTED_EDGE ( 'NONE', *, *, #366, .F. ) ;
#347 = CARTESIAN_POINT ( 'NONE',  ( 64.79999999999999700, -7.806255641895631900E-015, -148.0000000000000000 ) ) ;
#348 = ORIENTED_EDGE ( 'NONE', *, *, #227, .F. ) ;
#349 = DIRECTION ( 'NONE',  ( 0.0000000000000000000, -0.0000000000000000000, -1.000000000000000000 ) ) ;
#350 = ADVANCED_FACE ( 'NONE', ( #99 ), #184, .F. ) ;
#351 = CARTESIAN_POINT ( 'NONE',  ( 64.79999999999999700, -7.806255641895631900E-015, -148.0000000000000000 ) ) ;
#352 = DIRECTION ( 'NONE',  ( -0.0000000000000000000, 1.000000000000000000, -0.0000000000000000000 ) ) ;
#353 = ORIENTED_EDGE ( 'NONE', *, *, #330, .F. ) ;
#354 = DIRECTION ( 'NONE',  ( 0.0000000000000000000, -1.000000000000000000, 0.0000000000000000000 ) ) ;
#355 = DIRECTION ( 'NONE',  ( 0.0000000000000000000, -1.000000000000000000, 0.0000000000000000000 ) ) ;
#356 = ORIENTED_EDGE ( 'NONE', *, *, #151, .T. ) ;
#357 = ORIENTED_EDGE ( 'NONE', *, *, #117, .T. ) ;
#358 = ORIENTED_EDGE ( 'NONE', *, *, #87, .T. ) ;
#359 = ORIENTED_EDGE ( 'NONE', *, *, #391, .F. ) ;
#360 = EDGE_CURVE ( 'NONE', #364, #261, #105, .T. ) ;
#361 = CARTESIAN_POINT ( 'NONE',  ( 64.79999999999999700, -7.806255641895631900E-015, -148.0000000000000000 ) ) ;
#362 = EDGE_CURVE ( 'NONE', #386, #48, #95, .T. ) ;
#363 = ORIENTED_EDGE ( 'NONE', *, *, #163, .F. ) ;
#364 = VERTEX_POINT ( 'NONE', #135 ) ;
#365 = DIRECTION ( 'NONE',  ( -1.000000000000000000, -0.0000000000000000000, -0.0000000000000000000 ) ) ;
#366 = EDGE_CURVE ( 'NONE', #383, #223, #84, .T. ) ;
#367 = CARTESIAN_POINT ( 'NONE',  ( -63.00000000000000000, 1.799999999999996000, 0.0000000000000000000 ) ) ;
#368 = ORIENTED_EDGE ( 'NONE', *, *, #339, .F. ) ;
#369 = ORIENTED_EDGE ( 'NONE', *, *, #11, .T. ) ;
#370 = ORIENTED_EDGE ( 'NONE', *, *, #227, .T. ) ;
#371 = ORIENTED_EDGE ( 'NONE', *, *, #163, .T. ) ;
#372 = ORIENTED_EDGE ( 'NONE', *, *, #388, .T. ) ;
#373 = EDGE_CURVE ( 'NONE', #387, #223, #86, .T. ) ;
#374 = EDGE_CURVE ( 'NONE', #321, #387, #93, .T. ) ;
#375 = ORIENTED_EDGE ( 'NONE', *, *, #330, .T. ) ;
#376 = VERTEX_POINT ( 'NONE', #115 ) ;
#377 = ORIENTED_EDGE ( 'NONE', *, *, #7, .F. ) ;
#378 = ORIENTED_EDGE ( 'NONE', *, *, #87, .F. ) ;
#379 = EDGE_CURVE ( 'NONE', #289, #253, #79, .T. ) ;
#380 = EDGE_CURVE ( 'NONE', #289, #386, #80, .T. ) ;
#381 = VERTEX_POINT ( 'NONE', #111 ) ;
#382 = CARTESIAN_POINT ( 'NONE',  ( 61.00000000000000000, 101.0000000000000000, -148.0999999999999900 ) ) ;
#383 = VERTEX_POINT ( 'NONE', #94 ) ;
#384 = DIRECTION ( 'NONE',  ( 1.000000000000000000, 0.0000000000000000000, -0.0000000000000000000 ) ) ;
#385 = VERTEX_POINT ( 'NONE', #82 ) ;
#386 = VERTEX_POINT ( 'NONE', #78 ) ;
#387 = VERTEX_POINT ( 'NONE', #76 ) ;
#388 = EDGE_CURVE ( 'NONE', #381, #221, #73, .T. ) ;
#389 = DIRECTION ( 'NONE',  ( 0.0000000000000000000, 0.0000000000000000000, 1.000000000000000000 ) ) ;
#390 = LINE ( 'NONE', #345, #206 ) ;
#391 = EDGE_CURVE ( 'NONE', #381, #399, #63, .T. ) ;
#392 = PLANE ( 'NONE',  #153 ) ;
#393 = ORIENTED_EDGE ( 'NONE', *, *, #342, .F. ) ;
#394 = ORIENTED_EDGE ( 'NONE', *, *, #362, .F. ) ;
#395 = ORIENTED_EDGE ( 'NONE', *, *, #360, .F. ) ;
#396 = EDGE_CURVE ( 'NONE', #399, #385, #64, .T. ) ;
#397 = CARTESIAN_POINT ( 'NONE',  ( 61.00000000000000000, 101.0000000000000000, -148.0999999999999900 ) ) ;
#398 = ORIENTED_EDGE ( 'NONE', *, *, #102, .F. ) ;
#399 = VERTEX_POINT ( 'NONE', #54 ) ;
#400 = MANIFOLD_SOLID_BREP ( 'Cut-Extrude1', #258 ) ;
ENDSEC;
END-ISO-10303-21;
