ISO-10303-21;
HEADER;
FILE_DESCRIPTION (( 'STEP AP214' ),
    '1' );
FILE_NAME ('1124647.stp',
    '2024-05-02T14:31:48',
    ( '' ),
    ( '' ),
    'SwSTEP 2.0',
    'SolidWorks 2022',
    '' );
FILE_SCHEMA (( 'AUTOMOTIVE_DESIGN' ));
ENDSEC;

DATA;
#1 = EDGE_CURVE ( 'NONE', #349, #169, #278, .T. ) ;
#2 = DIRECTION ( 'NONE',  ( 1.000000000000000000, 0.000000000000000000, 0.000000000000000000 ) ) ;
#3 = CARTESIAN_POINT ( 'NONE',  ( 74.99999999999998579, 20.00000000000000355, -5.000000000000000000 ) ) ;
#4 = AXIS2_PLACEMENT_3D ( 'NONE', #163, #177, #233 ) ;
#5 = DIRECTION ( 'NONE',  ( -1.000000000000000000, -0.000000000000000000, -0.000000000000000000 ) ) ;
#6 = ORIENTED_EDGE ( 'NONE', *, *, #271, .F. ) ;
#7 = CARTESIAN_POINT ( 'NONE',  ( -50.00000000000000000, 0.000000000000000000, -5.000000000000000000 ) ) ;
#8 = EDGE_CURVE ( 'NONE', #284, #284, #228, .T. ) ;
#9 = EDGE_LOOP ( 'NONE', ( #325 ) ) ;
#10 = STYLED_ITEM ( 'NONE', ( #184 ), #48 ) ;
#11 = VERTEX_POINT ( 'NONE', #125 ) ;
#12 = FACE_BOUND ( 'NONE', #205, .T. ) ;
#13 = VERTEX_POINT ( 'NONE', #44 ) ;
#14 = FACE_OUTER_BOUND ( 'NONE', #9, .T. ) ;
#15 =( NAMED_UNIT ( * ) PLANE_ANGLE_UNIT ( ) SI_UNIT ( $, .RADIAN. ) );
#16 = SURFACE_STYLE_FILL_AREA ( #69 ) ;
#17 = PRESENTATION_LAYER_ASSIGNMENT (  '', '', ( #189 ) ) ;
#18 =( NAMED_UNIT ( * ) SI_UNIT ( $, .STERADIAN. ) SOLID_ANGLE_UNIT ( ) );
#19 = PLANE ( 'NONE',  #223 ) ;
#20 = CARTESIAN_POINT ( 'NONE',  ( 74.99999999999998579, 20.00000000000000355, -5.000000000000000000 ) ) ;
#21 = PLANE ( 'NONE',  #183 ) ;
#22 = SURFACE_SIDE_STYLE ('',( #243 ) ) ;
#23 = DIRECTION ( 'NONE',  ( 0.000000000000000000, 0.000000000000000000, 1.000000000000000000 ) ) ;
#24 = ORIENTED_EDGE ( 'NONE', *, *, #83, .F. ) ;
#25 = VECTOR ( 'NONE', #289, 1000.000000000000000 ) ;
#26 = ORIENTED_EDGE ( 'NONE', *, *, #224, .F. ) ;
#27 = UNCERTAINTY_MEASURE_WITH_UNIT (LENGTH_MEASURE( 1.000000000000000082E-05 ), #126, 'distance_accuracy_value', 'NONE');
#28 = ADVANCED_FACE ( 'NONE', ( #348, #113 ), #82, .F. ) ;
#29 = DIRECTION ( 'NONE',  ( 0.000000000000000000, -1.000000000000000000, 0.000000000000000000 ) ) ;
#30 = CARTESIAN_POINT ( 'NONE',  ( -75.00000000000000000, 20.00000000000000355, 0.000000000000000000 ) ) ;
#31 =( NAMED_UNIT ( * ) SI_UNIT ( $, .STERADIAN. ) SOLID_ANGLE_UNIT ( ) );
#32 = CARTESIAN_POINT ( 'NONE',  ( 50.00000000000000000, 1.224646799147353217E-14, 0.000000000000000000 ) ) ;
#33 = SURFACE_SIDE_STYLE ('',( #179 ) ) ;
#34 = STYLED_ITEM ( 'NONE', ( #152 ), #28 ) ;
#35 = SURFACE_SIDE_STYLE ('',( #52 ) ) ;
#36 = CARTESIAN_POINT ( 'NONE',  ( 6.499999999999993783, 3.469446951953614189E-15, -5.000000000000000000 ) ) ;
#37 = CARTESIAN_POINT ( 'NONE',  ( -75.00000000000000000, -19.99999999999999645, -5.000000000000000000 ) ) ;
#38 = DIRECTION ( 'NONE',  ( 0.000000000000000000, 1.000000000000000000, 0.000000000000000000 ) ) ;
#39 = CARTESIAN_POINT ( 'NONE',  ( -50.00000000000000000, 0.000000000000000000, -5.000000000000000000 ) ) ;
#40 = CARTESIAN_POINT ( 'NONE',  ( 74.99999999999998579, 20.00000000000000355, -5.000000000000000000 ) ) ;
#41 = ADVANCED_BREP_SHAPE_REPRESENTATION ( '1124647', ( #119, #268 ), #140 ) ;
#42 = AXIS2_PLACEMENT_3D ( 'NONE', #39, #192, #290 ) ;
#43 = DIRECTION ( 'NONE',  ( 1.000000000000000000, 0.000000000000000000, 0.000000000000000000 ) ) ;
#44 = CARTESIAN_POINT ( 'NONE',  ( 6.499999999999993783, 3.469446951953614189E-15, 0.000000000000000000 ) ) ;
#45 = CARTESIAN_POINT ( 'NONE',  ( -50.00000000000000000, 0.000000000000000000, 0.000000000000000000 ) ) ;
#46 = DIRECTION ( 'NONE',  ( 1.000000000000000000, 0.000000000000000000, 0.000000000000000000 ) ) ;
#47 = PRESENTATION_STYLE_ASSIGNMENT (( #296 ) ) ;
#48 = ADVANCED_FACE ( 'NONE', ( #315, #14 ), #313, .F. ) ;
#49 = COLOUR_RGB ( '',0.7529411764705882248, 0.7529411764705882248, 0.7529411764705882248 ) ;
#50 = CIRCLE ( 'NONE', #256, 6.500000000000005329 ) ;
#51 = SURFACE_STYLE_FILL_AREA ( #165 ) ;
#52 = SURFACE_STYLE_FILL_AREA ( #297 ) ;
#53 = PRESENTATION_LAYER_ASSIGNMENT (  '', '', ( #10 ) ) ;
#54 = VERTEX_POINT ( 'NONE', #99 ) ;
#55 = APPLICATION_CONTEXT ( 'automotive_design' ) ;
#56 =( NAMED_UNIT ( * ) PLANE_ANGLE_UNIT ( ) SI_UNIT ( $, .RADIAN. ) );
#57 = EDGE_CURVE ( 'NONE', #253, #54, #257, .T. ) ;
#58 = DIRECTION ( 'NONE',  ( -1.000000000000000000, 0.000000000000000000, 0.000000000000000000 ) ) ;
#59 = MECHANICAL_DESIGN_GEOMETRIC_PRESENTATION_REPRESENTATION (  '', ( #334 ), #135 ) ;
#60 = PRODUCT_DEFINITION_SHAPE ( 'NONE', 'NONE',  #201 ) ;
#61 = ORIENTED_EDGE ( 'NONE', *, *, #1, .T. ) ;
#62 = PLANE ( 'NONE',  #172 ) ;
#63 = VERTEX_POINT ( 'NONE', #187 ) ;
#64 = DIRECTION ( 'NONE',  ( 0.000000000000000000, 0.000000000000000000, 1.000000000000000000 ) ) ;
#65 = EDGE_CURVE ( 'NONE', #63, #167, #208, .T. ) ;
#66 = EDGE_LOOP ( 'NONE', ( #232 ) ) ;
#67 = FILL_AREA_STYLE ('',( #226 ) ) ;
#68 = STYLED_ITEM ( 'NONE', ( #47 ), #119 ) ;
#69 = FILL_AREA_STYLE ('',( #186 ) ) ;
#70 = LINE ( 'NONE', #235, #123 ) ;
#71 = ADVANCED_FACE ( 'NONE', ( #263 ), #19, .T. ) ;
#72 = DIRECTION ( 'NONE',  ( -0.000000000000000000, -0.000000000000000000, 1.000000000000000000 ) ) ;
#73 = CARTESIAN_POINT ( 'NONE',  ( 50.00000000000000000, 1.224646799147353217E-14, -5.000000000000000000 ) ) ;
#74 = AXIS2_PLACEMENT_3D ( 'NONE', #102, #72, #78 ) ;
#75 = DIRECTION ( 'NONE',  ( -0.000000000000000000, 0.000000000000000000, -1.000000000000000000 ) ) ;
#76 = DIRECTION ( 'NONE',  ( 0.000000000000000000, 0.000000000000000000, 1.000000000000000000 ) ) ;
#77 = ORIENTED_EDGE ( 'NONE', *, *, #238, .T. ) ;
#78 = DIRECTION ( 'NONE',  ( 1.000000000000000000, 0.000000000000000000, 0.000000000000000000 ) ) ;
#79 = DIRECTION ( 'NONE',  ( 0.000000000000000000, -0.000000000000000000, -1.000000000000000000 ) ) ;
#80 =( NAMED_UNIT ( * ) SI_UNIT ( $, .STERADIAN. ) SOLID_ANGLE_UNIT ( ) );
#81 =( GEOMETRIC_REPRESENTATION_CONTEXT ( 3 ) GLOBAL_UNCERTAINTY_ASSIGNED_CONTEXT ( ( #300 ) ) GLOBAL_UNIT_ASSIGNED_CONTEXT ( ( #338, #190, #312 ) ) REPRESENTATION_CONTEXT ( 'NONE', 'WORKASPACE' ) );
#82 = CYLINDRICAL_SURFACE ( 'NONE', #42, 6.500000000000005329 ) ;
#83 = EDGE_CURVE ( 'NONE', #258, #258, #157, .T. ) ;
#84 = ORIENTED_EDGE ( 'NONE', *, *, #231, .F. ) ;
#85 = PRESENTATION_LAYER_ASSIGNMENT (  '', '', ( #68 ) ) ;
#86 = COLOUR_RGB ( '',0.7529411764705882248, 0.7529411764705882248, 0.7529411764705882248 ) ;
#87 = FACE_BOUND ( 'NONE', #239, .T. ) ;
#88 =( NAMED_UNIT ( * ) SI_UNIT ( $, .STERADIAN. ) SOLID_ANGLE_UNIT ( ) );
#89 = EDGE_LOOP ( 'NONE', ( #132 ) ) ;
#90 = VECTOR ( 'NONE', #155, 1000.000000000000000 ) ;
#91 = PRODUCT_DEFINITION_CONTEXT ( 'detailed design', #55, 'design' ) ;
#92 = PRODUCT ( '1124647', '1124647', '', ( #114 ) ) ;
#93 = DIRECTION ( 'NONE',  ( -1.000000000000000000, -0.000000000000000000, -0.000000000000000000 ) ) ;
#94 = DIRECTION ( 'NONE',  ( 1.000000000000000000, 0.000000000000000000, 0.000000000000000000 ) ) ;
#95 = EDGE_LOOP ( 'NONE', ( #77, #61, #246, #222 ) ) ;
#96 = DIRECTION ( 'NONE',  ( 0.000000000000000000, 0.000000000000000000, 1.000000000000000000 ) ) ;
#97 =( LENGTH_UNIT ( ) NAMED_UNIT ( * ) SI_UNIT ( .MILLI., .METRE. ) );
#98 = VECTOR ( 'NONE', #96, 1000.000000000000000 ) ;
#99 = CARTESIAN_POINT ( 'NONE',  ( 74.99999999999998579, -19.99999999999999645, 0.000000000000000000 ) ) ;
#100 = EDGE_CURVE ( 'NONE', #63, #253, #133, .T. ) ;
#101 = CARTESIAN_POINT ( 'NONE',  ( 0.000000000000000000, 0.000000000000000000, -5.000000000000000000 ) ) ;
#102 = CARTESIAN_POINT ( 'NONE',  ( -6.938893903907228378E-15, 3.469446951953614189E-15, -5.000000000000000000 ) ) ;
#103 = DIRECTION ( 'NONE',  ( 0.000000000000000000, 0.000000000000000000, 1.000000000000000000 ) ) ;
#104 = EDGE_LOOP ( 'NONE', ( #6 ) ) ;
#105 = CIRCLE ( 'NONE', #4, 6.500000000000000888 ) ;
#106 =( NAMED_UNIT ( * ) SI_UNIT ( $, .STERADIAN. ) SOLID_ANGLE_UNIT ( ) );
#107 = PRODUCT_DEFINITION_FORMATION_WITH_SPECIFIED_SOURCE ( 'ANY', '', #92, .NOT_KNOWN. ) ;
#108 = ADVANCED_FACE ( 'NONE', ( #234 ), #288, .T. ) ;
#109 = CARTESIAN_POINT ( 'NONE',  ( -75.00000000000000000, 20.00000000000000355, -5.000000000000000000 ) ) ;
#110 = APPLICATION_PROTOCOL_DEFINITION ( 'draft international standard', 'automotive_design', 1998, #55 ) ;
#111 =( LENGTH_UNIT ( ) NAMED_UNIT ( * ) SI_UNIT ( .MILLI., .METRE. ) );
#112 = CIRCLE ( 'NONE', #195, 6.500000000000000888 ) ;
#113 = FACE_OUTER_BOUND ( 'NONE', #141, .T. ) ;
#114 = PRODUCT_CONTEXT ( 'NONE', #341, 'mechanical' ) ;
#115 = EDGE_LOOP ( 'NONE', ( #178, #227, #175, #344 ) ) ;
#116 = AXIS2_PLACEMENT_3D ( 'NONE', #45, #160, #285 ) ;
#117 = LINE ( 'NONE', #173, #292 ) ;
#118 = ORIENTED_EDGE ( 'NONE', *, *, #154, .T. ) ;
#119 = MANIFOLD_SOLID_BREP ( 'Extrude1', #198 ) ;
#120 = ORIENTED_EDGE ( 'NONE', *, *, #8, .T. ) ;
#121 = DIRECTION ( 'NONE',  ( -0.000000000000000000, 0.000000000000000000, 1.000000000000000000 ) ) ;
#122 = PRESENTATION_LAYER_ASSIGNMENT (  '', '', ( #34 ) ) ;
#123 = VECTOR ( 'NONE', #185, 1000.000000000000000 ) ;
#124 = UNCERTAINTY_MEASURE_WITH_UNIT (LENGTH_MEASURE( 1.000000000000000082E-05 ), #97, 'distance_accuracy_value', 'NONE');
#125 = CARTESIAN_POINT ( 'NONE',  ( -75.00000000000000000, 20.00000000000000355, -5.000000000000000000 ) ) ;
#126 =( LENGTH_UNIT ( ) NAMED_UNIT ( * ) SI_UNIT ( .MILLI., .METRE. ) );
#127 = DIRECTION ( 'NONE',  ( 1.000000000000000000, 0.000000000000000000, 0.000000000000000000 ) ) ;
#128 = EDGE_CURVE ( 'NONE', #260, #260, #105, .T. ) ;
#129 = VECTOR ( 'NONE', #127, 1000.000000000000000 ) ;
#130 = DIRECTION ( 'NONE',  ( -0.000000000000000000, 1.000000000000000000, -0.000000000000000000 ) ) ;
#131 = FACE_OUTER_BOUND ( 'NONE', #137, .T. ) ;
#132 = ORIENTED_EDGE ( 'NONE', *, *, #8, .F. ) ;
#133 = LINE ( 'NONE', #37, #90 ) ;
#134 = CARTESIAN_POINT ( 'NONE',  ( -43.50000000000000000, 0.000000000000000000, 0.000000000000000000 ) ) ;
#135 =( GEOMETRIC_REPRESENTATION_CONTEXT ( 3 ) GLOBAL_UNCERTAINTY_ASSIGNED_CONTEXT ( ( #330 ) ) GLOBAL_UNIT_ASSIGNED_CONTEXT ( ( #151, #204, #88 ) ) REPRESENTATION_CONTEXT ( 'NONE', 'WORKASPACE' ) );
#136 = FILL_AREA_STYLE_COLOUR ( '', #272 ) ;
#137 = EDGE_LOOP ( 'NONE', ( #138, #266, #215, #150 ) ) ;
#138 = ORIENTED_EDGE ( 'NONE', *, *, #1, .F. ) ;
#139 = AXIS2_PLACEMENT_3D ( 'NONE', #32, #282, #254 ) ;
#140 =( GEOMETRIC_REPRESENTATION_CONTEXT ( 3 ) GLOBAL_UNCERTAINTY_ASSIGNED_CONTEXT ( ( #124 ) ) GLOBAL_UNIT_ASSIGNED_CONTEXT ( ( #97, #15, #18 ) ) REPRESENTATION_CONTEXT ( 'NONE', 'WORKASPACE' ) );
#141 = EDGE_LOOP ( 'NONE', ( #221 ) ) ;
#142 = ORIENTED_EDGE ( 'NONE', *, *, #57, .F. ) ;
#143 = UNCERTAINTY_MEASURE_WITH_UNIT (LENGTH_MEASURE( 1.000000000000000082E-05 ), #158, 'distance_accuracy_value', 'NONE');
#144 = COLOUR_RGB ( '',0.7529411764705882248, 0.7529411764705882248, 0.7529411764705882248 ) ;
#145 = CYLINDRICAL_SURFACE ( 'NONE', #203, 6.500000000000005329 ) ;
#146 = DIRECTION ( 'NONE',  ( 0.000000000000000000, 0.000000000000000000, 1.000000000000000000 ) ) ;
#147 = EDGE_LOOP ( 'NONE', ( #142, #247, #202, #118 ) ) ;
#148 = SURFACE_STYLE_USAGE ( .BOTH. , #33 ) ;
#149 = ADVANCED_FACE ( 'NONE', ( #12, #171, #87, #248 ), #62, .T. ) ;
#150 = ORIENTED_EDGE ( 'NONE', *, *, #250, .T. ) ;
#151 =( LENGTH_UNIT ( ) NAMED_UNIT ( * ) SI_UNIT ( .MILLI., .METRE. ) );
#152 = PRESENTATION_STYLE_ASSIGNMENT (( #259 ) ) ;
#153 = LINE ( 'NONE', #294, #182 ) ;
#154 = EDGE_CURVE ( 'NONE', #167, #54, #281, .T. ) ;
#155 = DIRECTION ( 'NONE',  ( 0.000000000000000000, 0.000000000000000000, 1.000000000000000000 ) ) ;
#156 = DIRECTION ( 'NONE',  ( 0.000000000000000000, -0.000000000000000000, 1.000000000000000000 ) ) ;
#157 = CIRCLE ( 'NONE', #116, 6.500000000000005329 ) ;
#158 =( LENGTH_UNIT ( ) NAMED_UNIT ( * ) SI_UNIT ( .MILLI., .METRE. ) );
#159 = EDGE_LOOP ( 'NONE', ( #298, #280, #241, #162 ) ) ;
#160 = DIRECTION ( 'NONE',  ( 0.000000000000000000, 0.000000000000000000, 1.000000000000000000 ) ) ;
#161 = DIRECTION ( 'NONE',  ( 0.000000000000000000, 0.000000000000000000, 1.000000000000000000 ) ) ;
#162 = ORIENTED_EDGE ( 'NONE', *, *, #100, .T. ) ;
#163 = CARTESIAN_POINT ( 'NONE',  ( -6.938893903907228378E-15, 3.469446951953614189E-15, -5.000000000000000000 ) ) ;
#164 = VECTOR ( 'NONE', #43, 1000.000000000000000 ) ;
#165 = FILL_AREA_STYLE ('',( #244 ) ) ;
#166 = SHAPE_DEFINITION_REPRESENTATION ( #60, #41 ) ;
#167 = VERTEX_POINT ( 'NONE', #332 ) ;
#168 = MECHANICAL_DESIGN_GEOMETRIC_PRESENTATION_REPRESENTATION (  '', ( #68 ), #309 ) ;
#169 = VERTEX_POINT ( 'NONE', #230 ) ;
#170 = EDGE_CURVE ( 'NONE', #331, #349, #324, .T. ) ;
#171 = FACE_BOUND ( 'NONE', #89, .T. ) ;
#172 = AXIS2_PLACEMENT_3D ( 'NONE', #305, #121, #276 ) ;
#173 = CARTESIAN_POINT ( 'NONE',  ( -75.00000000000000000, 20.00000000000000355, -5.000000000000000000 ) ) ;
#174 = VECTOR ( 'NONE', #76, 1000.000000000000000 ) ;
#175 = ORIENTED_EDGE ( 'NONE', *, *, #311, .T. ) ;
#176 = ADVANCED_FACE ( 'NONE', ( #252, #307 ), #145, .F. ) ;
#177 = DIRECTION ( 'NONE',  ( 0.000000000000000000, 0.000000000000000000, 1.000000000000000000 ) ) ;
#178 = ORIENTED_EDGE ( 'NONE', *, *, #238, .F. ) ;
#179 = SURFACE_STYLE_FILL_AREA ( #67 ) ;
#180 = EDGE_LOOP ( 'NONE', ( #270, #225, #26, #245 ) ) ;
#181 = CARTESIAN_POINT ( 'NONE',  ( 56.50000000000000711, 1.224646799147353217E-14, -5.000000000000000000 ) ) ;
#182 = VECTOR ( 'NONE', #130, 1000.000000000000000 ) ;
#183 = AXIS2_PLACEMENT_3D ( 'NONE', #101, #286, #265 ) ;
#184 = PRESENTATION_STYLE_ASSIGNMENT (( #210 ) ) ;
#185 = DIRECTION ( 'NONE',  ( -0.000000000000000000, 1.000000000000000000, -0.000000000000000000 ) ) ;
#186 = FILL_AREA_STYLE_COLOUR ( '', #49 ) ;
#187 = CARTESIAN_POINT ( 'NONE',  ( -75.00000000000000000, -19.99999999999999645, -5.000000000000000000 ) ) ;
#188 = CARTESIAN_POINT ( 'NONE',  ( -6.938893903907228378E-15, 3.469446951953614189E-15, 0.000000000000000000 ) ) ;
#189 = STYLED_ITEM ( 'NONE', ( #193 ), #41 ) ;
#190 =( NAMED_UNIT ( * ) PLANE_ANGLE_UNIT ( ) SI_UNIT ( $, .RADIAN. ) );
#191 = FACE_BOUND ( 'NONE', #66, .T. ) ;
#192 = DIRECTION ( 'NONE',  ( -0.000000000000000000, -0.000000000000000000, 1.000000000000000000 ) ) ;
#193 = PRESENTATION_STYLE_ASSIGNMENT (( #345 ) ) ;
#194 = ADVANCED_FACE ( 'NONE', ( #200 ), #251, .T. ) ;
#195 = AXIS2_PLACEMENT_3D ( 'NONE', #188, #237, #46 ) ;
#196 = FILL_AREA_STYLE_COLOUR ( '', #323 ) ;
#197 = ORIENTED_EDGE ( 'NONE', *, *, #320, .F. ) ;
#198 = CLOSED_SHELL ( 'NONE', ( #71, #108, #194, #346, #326, #149, #48, #176, #28 ) ) ;
#199 = CARTESIAN_POINT ( 'NONE',  ( 50.00000000000000000, 1.224646799147353217E-14, -5.000000000000000000 ) ) ;
#200 = FACE_OUTER_BOUND ( 'NONE', #159, .T. ) ;
#201 = PRODUCT_DEFINITION ( 'UNKNOWN', '', #107, #91 ) ;
#202 = ORIENTED_EDGE ( 'NONE', *, *, #65, .T. ) ;
#203 = AXIS2_PLACEMENT_3D ( 'NONE', #199, #329, #94 ) ;
#204 =( NAMED_UNIT ( * ) PLANE_ANGLE_UNIT ( ) SI_UNIT ( $, .RADIAN. ) );
#205 = EDGE_LOOP ( 'NONE', ( #24 ) ) ;
#206 = EDGE_LOOP ( 'NONE', ( #304 ) ) ;
#207 = CARTESIAN_POINT ( 'NONE',  ( 74.99999999999998579, -19.99999999999999645, -5.000000000000000000 ) ) ;
#208 = LINE ( 'NONE', #308, #129 ) ;
#209 = VECTOR ( 'NONE', #146, 1000.000000000000000 ) ;
#210 = SURFACE_STYLE_USAGE ( .BOTH. , #336 ) ;
#211 = VERTEX_POINT ( 'NONE', #240 ) ;
#212 = DIRECTION ( 'NONE',  ( 1.000000000000000000, 0.000000000000000000, 0.000000000000000000 ) ) ;
#213 = DIRECTION ( 'NONE',  ( 1.000000000000000000, 0.000000000000000000, -0.000000000000000000 ) ) ;
#214 = CARTESIAN_POINT ( 'NONE',  ( -75.00000000000000000, 20.00000000000000355, 0.000000000000000000 ) ) ;
#215 = ORIENTED_EDGE ( 'NONE', *, *, #218, .T. ) ;
#216 = CARTESIAN_POINT ( 'NONE',  ( -75.00000000000000000, -19.99999999999999645, 0.000000000000000000 ) ) ;
#217 = FILL_AREA_STYLE ('',( #136 ) ) ;
#218 = EDGE_CURVE ( 'NONE', #331, #11, #279, .T. ) ;
#219 =( NAMED_UNIT ( * ) PLANE_ANGLE_UNIT ( ) SI_UNIT ( $, .RADIAN. ) );
#220 =( GEOMETRIC_REPRESENTATION_CONTEXT ( 3 ) GLOBAL_UNCERTAINTY_ASSIGNED_CONTEXT ( ( #143 ) ) GLOBAL_UNIT_ASSIGNED_CONTEXT ( ( #158, #340, #106 ) ) REPRESENTATION_CONTEXT ( 'NONE', 'WORKASPACE' ) );
#221 = ORIENTED_EDGE ( 'NONE', *, *, #83, .T. ) ;
#222 = ORIENTED_EDGE ( 'NONE', *, *, #57, .T. ) ;
#223 = AXIS2_PLACEMENT_3D ( 'NONE', #20, #213, #75 ) ;
#224 = EDGE_CURVE ( 'NONE', #11, #63, #117, .T. ) ;
#225 = ORIENTED_EDGE ( 'NONE', *, *, #65, .F. ) ;
#226 = FILL_AREA_STYLE_COLOUR ( '', #144 ) ;
#227 = ORIENTED_EDGE ( 'NONE', *, *, #154, .F. ) ;
#228 = CIRCLE ( 'NONE', #139, 6.500000000000005329 ) ;
#229 = MECHANICAL_DESIGN_GEOMETRIC_PRESENTATION_REPRESENTATION (  '', ( #189 ), #242 ) ;
#230 = CARTESIAN_POINT ( 'NONE',  ( -75.00000000000000000, 20.00000000000000355, 0.000000000000000000 ) ) ;
#231 = EDGE_CURVE ( 'NONE', #211, #211, #283, .T. ) ;
#232 = ORIENTED_EDGE ( 'NONE', *, *, #271, .T. ) ;
#233 = DIRECTION ( 'NONE',  ( 1.000000000000000000, 0.000000000000000000, 0.000000000000000000 ) ) ;
#234 = FACE_OUTER_BOUND ( 'NONE', #147, .T. ) ;
#235 = CARTESIAN_POINT ( 'NONE',  ( 74.99999999999998579, 20.00000000000000355, -5.000000000000000000 ) ) ;
#236 = AXIS2_PLACEMENT_3D ( 'NONE', #277, #58, #64 ) ;
#237 = DIRECTION ( 'NONE',  ( 0.000000000000000000, 0.000000000000000000, 1.000000000000000000 ) ) ;
#238 = EDGE_CURVE ( 'NONE', #54, #349, #153, .T. ) ;
#239 = EDGE_LOOP ( 'NONE', ( #197 ) ) ;
#240 = CARTESIAN_POINT ( 'NONE',  ( -43.50000000000000000, 0.000000000000000000, -5.000000000000000000 ) ) ;
#241 = ORIENTED_EDGE ( 'NONE', *, *, #224, .T. ) ;
#242 =( GEOMETRIC_REPRESENTATION_CONTEXT ( 3 ) GLOBAL_UNCERTAINTY_ASSIGNED_CONTEXT ( ( #303 ) ) GLOBAL_UNIT_ASSIGNED_CONTEXT ( ( #111, #219, #80 ) ) REPRESENTATION_CONTEXT ( 'NONE', 'WORKASPACE' ) );
#243 = SURFACE_STYLE_FILL_AREA ( #217 ) ;
#244 = FILL_AREA_STYLE_COLOUR ( '', #86 ) ;
#245 = ORIENTED_EDGE ( 'NONE', *, *, #218, .F. ) ;
#246 = ORIENTED_EDGE ( 'NONE', *, *, #295, .T. ) ;
#247 = ORIENTED_EDGE ( 'NONE', *, *, #100, .F. ) ;
#248 = FACE_OUTER_BOUND ( 'NONE', #95, .T. ) ;
#249 = MECHANICAL_DESIGN_GEOMETRIC_PRESENTATION_REPRESENTATION (  '', ( #10 ), #220 ) ;
#250 = EDGE_CURVE ( 'NONE', #11, #169, #261, .T. ) ;
#251 = PLANE ( 'NONE',  #236 ) ;
#252 = FACE_OUTER_BOUND ( 'NONE', #104, .T. ) ;
#253 = VERTEX_POINT ( 'NONE', #216 ) ;
#254 = DIRECTION ( 'NONE',  ( 1.000000000000000000, 0.000000000000000000, 0.000000000000000000 ) ) ;
#255 = AXIS2_PLACEMENT_3D ( 'NONE', #267, #319, #79 ) ;
#256 = AXIS2_PLACEMENT_3D ( 'NONE', #73, #103, #310 ) ;
#257 = LINE ( 'NONE', #293, #164 ) ;
#258 = VERTEX_POINT ( 'NONE', #134 ) ;
#259 = SURFACE_STYLE_USAGE ( .BOTH. , #35 ) ;
#260 = VERTEX_POINT ( 'NONE', #36 ) ;
#261 = LINE ( 'NONE', #339, #174 ) ;
#262 = VECTOR ( 'NONE', #93, 1000.000000000000000 ) ;
#263 = FACE_OUTER_BOUND ( 'NONE', #115, .T. ) ;
#264 = FACE_BOUND ( 'NONE', #322, .T. ) ;
#265 = DIRECTION ( 'NONE',  ( 1.000000000000000000, 0.000000000000000000, 0.000000000000000000 ) ) ;
#266 = ORIENTED_EDGE ( 'NONE', *, *, #170, .F. ) ;
#267 = CARTESIAN_POINT ( 'NONE',  ( -75.00000000000000000, -19.99999999999999645, -5.000000000000000000 ) ) ;
#268 = AXIS2_PLACEMENT_3D ( 'NONE', #269, #23, #2 ) ;
#269 = CARTESIAN_POINT ( 'NONE',  ( 0.000000000000000000, 0.000000000000000000, 0.000000000000000000 ) ) ;
#270 = ORIENTED_EDGE ( 'NONE', *, *, #311, .F. ) ;
#271 = EDGE_CURVE ( 'NONE', #342, #342, #50, .T. ) ;
#272 = COLOUR_RGB ( '',0.7529411764705882248, 0.7529411764705882248, 0.7529411764705882248 ) ;
#273 = SURFACE_SIDE_STYLE ('',( #51 ) ) ;
#274 = EDGE_LOOP ( 'NONE', ( #120 ) ) ;
#275 = PRESENTATION_STYLE_ASSIGNMENT (( #148 ) ) ;
#276 = DIRECTION ( 'NONE',  ( 1.000000000000000000, 0.000000000000000000, 0.000000000000000000 ) ) ;
#277 = CARTESIAN_POINT ( 'NONE',  ( -75.00000000000000000, 20.00000000000000355, -5.000000000000000000 ) ) ;
#278 = LINE ( 'NONE', #30, #262 ) ;
#279 = LINE ( 'NONE', #301, #347 ) ;
#280 = ORIENTED_EDGE ( 'NONE', *, *, #250, .F. ) ;
#281 = LINE ( 'NONE', #207, #209 ) ;
#282 = DIRECTION ( 'NONE',  ( 0.000000000000000000, 0.000000000000000000, 1.000000000000000000 ) ) ;
#283 = CIRCLE ( 'NONE', #343, 6.500000000000005329 ) ;
#284 = VERTEX_POINT ( 'NONE', #314 ) ;
#285 = DIRECTION ( 'NONE',  ( 1.000000000000000000, 0.000000000000000000, 0.000000000000000000 ) ) ;
#286 = DIRECTION ( 'NONE',  ( -0.000000000000000000, 0.000000000000000000, 1.000000000000000000 ) ) ;
#287 = PRODUCT_RELATED_PRODUCT_CATEGORY ( 'part', '', ( #92 ) ) ;
#288 = PLANE ( 'NONE',  #255 ) ;
#289 = DIRECTION ( 'NONE',  ( 0.000000000000000000, -1.000000000000000000, 0.000000000000000000 ) ) ;
#290 = DIRECTION ( 'NONE',  ( 1.000000000000000000, 0.000000000000000000, 0.000000000000000000 ) ) ;
#291 = PLANE ( 'NONE',  #327 ) ;
#292 = VECTOR ( 'NONE', #29, 1000.000000000000000 ) ;
#293 = CARTESIAN_POINT ( 'NONE',  ( -75.00000000000000000, -19.99999999999999645, 0.000000000000000000 ) ) ;
#294 = CARTESIAN_POINT ( 'NONE',  ( 74.99999999999998579, 20.00000000000000355, 0.000000000000000000 ) ) ;
#295 = EDGE_CURVE ( 'NONE', #169, #253, #316, .T. ) ;
#296 = SURFACE_STYLE_USAGE ( .BOTH. , #22 ) ;
#297 = FILL_AREA_STYLE ('',( #196 ) ) ;
#298 = ORIENTED_EDGE ( 'NONE', *, *, #295, .F. ) ;
#299 = PRESENTATION_LAYER_ASSIGNMENT (  '', '', ( #334 ) ) ;
#300 = UNCERTAINTY_MEASURE_WITH_UNIT (LENGTH_MEASURE( 1.000000000000000082E-05 ), #338, 'distance_accuracy_value', 'NONE');
#301 = CARTESIAN_POINT ( 'NONE',  ( -75.00000000000000000, 20.00000000000000355, -5.000000000000000000 ) ) ;
#302 = ORIENTED_EDGE ( 'NONE', *, *, #128, .F. ) ;
#303 = UNCERTAINTY_MEASURE_WITH_UNIT (LENGTH_MEASURE( 1.000000000000000082E-05 ), #111, 'distance_accuracy_value', 'NONE');
#304 = ORIENTED_EDGE ( 'NONE', *, *, #231, .T. ) ;
#305 = CARTESIAN_POINT ( 'NONE',  ( 0.000000000000000000, 0.000000000000000000, 0.000000000000000000 ) ) ;
#306 = EDGE_LOOP ( 'NONE', ( #84 ) ) ;
#307 = FACE_OUTER_BOUND ( 'NONE', #274, .T. ) ;
#308 = CARTESIAN_POINT ( 'NONE',  ( -75.00000000000000000, -19.99999999999999645, -5.000000000000000000 ) ) ;
#309 =( GEOMETRIC_REPRESENTATION_CONTEXT ( 3 ) GLOBAL_UNCERTAINTY_ASSIGNED_CONTEXT ( ( #27 ) ) GLOBAL_UNIT_ASSIGNED_CONTEXT ( ( #126, #56, #31 ) ) REPRESENTATION_CONTEXT ( 'NONE', 'WORKASPACE' ) );
#310 = DIRECTION ( 'NONE',  ( 1.000000000000000000, 0.000000000000000000, 0.000000000000000000 ) ) ;
#311 = EDGE_CURVE ( 'NONE', #167, #331, #70, .T. ) ;
#312 =( NAMED_UNIT ( * ) SI_UNIT ( $, .STERADIAN. ) SOLID_ANGLE_UNIT ( ) );
#313 = CYLINDRICAL_SURFACE ( 'NONE', #74, 6.500000000000000888 ) ;
#314 = CARTESIAN_POINT ( 'NONE',  ( 56.50000000000000711, 1.224646799147353217E-14, 0.000000000000000000 ) ) ;
#315 = FACE_OUTER_BOUND ( 'NONE', #328, .T. ) ;
#316 = LINE ( 'NONE', #214, #25 ) ;
#317 = MECHANICAL_DESIGN_GEOMETRIC_PRESENTATION_REPRESENTATION (  '', ( #34 ), #81 ) ;
#318 = CARTESIAN_POINT ( 'NONE',  ( 74.99999999999998579, 20.00000000000000355, 0.000000000000000000 ) ) ;
#319 = DIRECTION ( 'NONE',  ( 0.000000000000000000, -1.000000000000000000, 0.000000000000000000 ) ) ;
#320 = EDGE_CURVE ( 'NONE', #13, #13, #112, .T. ) ;
#321 = ORIENTED_EDGE ( 'NONE', *, *, #128, .T. ) ;
#322 = EDGE_LOOP ( 'NONE', ( #321 ) ) ;
#323 = COLOUR_RGB ( '',0.7529411764705882248, 0.7529411764705882248, 0.7529411764705882248 ) ;
#324 = LINE ( 'NONE', #3, #98 ) ;
#325 = ORIENTED_EDGE ( 'NONE', *, *, #320, .T. ) ;
#326 = ADVANCED_FACE ( 'NONE', ( #333, #191, #264, #335 ), #21, .F. ) ;
#327 = AXIS2_PLACEMENT_3D ( 'NONE', #109, #38, #156 ) ;
#328 = EDGE_LOOP ( 'NONE', ( #302 ) ) ;
#329 = DIRECTION ( 'NONE',  ( -0.000000000000000000, -0.000000000000000000, 1.000000000000000000 ) ) ;
#330 = UNCERTAINTY_MEASURE_WITH_UNIT (LENGTH_MEASURE( 1.000000000000000082E-05 ), #151, 'distance_accuracy_value', 'NONE');
#331 = VERTEX_POINT ( 'NONE', #40 ) ;
#332 = CARTESIAN_POINT ( 'NONE',  ( 74.99999999999998579, -19.99999999999999645, -5.000000000000000000 ) ) ;
#333 = FACE_BOUND ( 'NONE', #206, .T. ) ;
#334 = STYLED_ITEM ( 'NONE', ( #275 ), #176 ) ;
#335 = FACE_OUTER_BOUND ( 'NONE', #180, .T. ) ;
#336 = SURFACE_SIDE_STYLE ('',( #16 ) ) ;
#337 = APPLICATION_PROTOCOL_DEFINITION ( 'draft international standard', 'automotive_design', 1998, #341 ) ;
#338 =( LENGTH_UNIT ( ) NAMED_UNIT ( * ) SI_UNIT ( .MILLI., .METRE. ) );
#339 = CARTESIAN_POINT ( 'NONE',  ( -75.00000000000000000, 20.00000000000000355, -5.000000000000000000 ) ) ;
#340 =( NAMED_UNIT ( * ) PLANE_ANGLE_UNIT ( ) SI_UNIT ( $, .RADIAN. ) );
#341 = APPLICATION_CONTEXT ( 'automotive_design' ) ;
#342 = VERTEX_POINT ( 'NONE', #181 ) ;
#343 = AXIS2_PLACEMENT_3D ( 'NONE', #7, #161, #212 ) ;
#344 = ORIENTED_EDGE ( 'NONE', *, *, #170, .T. ) ;
#345 = SURFACE_STYLE_USAGE ( .BOTH. , #273 ) ;
#346 = ADVANCED_FACE ( 'NONE', ( #131 ), #291, .T. ) ;
#347 = VECTOR ( 'NONE', #5, 1000.000000000000000 ) ;
#348 = FACE_OUTER_BOUND ( 'NONE', #306, .T. ) ;
#349 = VERTEX_POINT ( 'NONE', #318 ) ;
ENDSEC;
END-ISO-10303-21;
